Log in

One click and you are in

Login with Facebook Login with Google

Why sign up and log in

Guitar Tabs Explorer
The Mamas And The Papas bass tabs for My heart stood still

My Heart Stood Still bass tab by The Mamas And The Papas

The Mamas And The Papas bass tabs for My heart stood still

Bass tabs

Tabbed by: 6METAL6BASSIST6
E-mail: petergriffinav@gmail.com


Tuning: EADG

0:22

G|----------------------------------------------------------------|
D|----------------2-------2-------3-------3-------5-------5-------|
A|3-------3-------------------------------------------------------|
E|----------------------------------------------------------------|

G|----------------------------------------------------------------|
D|------------------------2-------3---2---3-/-5-------5-------5---|
A|3-------3-------2-----------------------------------------------|
E|----------------------------------------------------------------|

G|----------------------------------------------------------------|
D|----------------2---3---5-------3-----------3---3-------3---5---| x2
A|3-------3-------------------3-----------------------------------|
E|----------------------------------------------------------------|

G|----------------------------------------------------------------|
D|----------------------------------------------------------------|
A|3-----------3---3-------3-------3-------------------------------|
E|----------------------------------------------------------------|

0:45

G|----------------------------------------------------------------|
D|----------------------------------------------------------------|
A|3-----------3---3---3-------3---3-----------3---3---3-------3---|
E|----------------------------------------------------------------|

G|----------------------------------------------------------------|
D|5-----------5---5-----------5---5-----------5---5---5-------3---|
A|----------------------------------------------------------------|
E|----------------------------------------------------------------|

G|----------------------------------------------------------------|
D|----------------------------------------------------------------|
A|3-----------3---3---------------5-----------5---5---------------|
E|----------------------------------------------------------------|

G|----------------------------------------------------------------|
D|3-------3-------3-------3-------5---5---5---5---5---5---5---5---|
A|----------------------------------------------------------------|
E|----------------------------------------------------------------|

1:03

G|----------------------------------------------------------------|
D|--------------------------------3-------3-------5-------5-------|
A|3---------------2-----------------------------------------------|
E|----------------------------------------------------------------|

G|----------------------------------------------------------------|
D|----------------2-------5-------3-------3-------3-------3---5---|
A|3-------3-------------------------------------------------------|
E|----------------------------------------------------------------|

G|----------------------------------------------------------------|
D|----------------2-------3-------5-------5-------5-------5-------|
A|3-------3-------------------------------------------------------|
E|----------------------------------------------------------------|

G|----------------------------------------------------------------|
D|7-------7-------7-------7-------7-------7-------7-------7-------|
A|----------------------------------------------------------------|
E|----------------------------------------------------------------|

1:21

G|----------------------------------------------------------------|
D|2-------2-------3-------3-----------------------5---5---5-------|
A|--------------------------------5-------5-----------------------|
E|----------------------------------------------------------------|

G|----------------------------------------------------------------|
D|----------------2-------5-------3-------3-------3-------3-------|
A|3-------3-------------------------------------------------------|
E|----------------------------------------------------------------|

G|----------------------------------------------------------------|
D|--------------------------------------------3---5---------------|
A|3-------3-------3-------3---2---1-------1-----------------------|
E|----------------------------------------------------------------|

G|----------------------------------------------------|
D|----------------------------------------------------|
A|3-------3-------3-------3-------3-------3-------3---|

Almost there ...

Sign in to get your own page with links to favourite songs and more. You are just one click away...

Login with Facebook Login with Google