Log in

One click and you are in

Login with Facebook Login with Google

Why sign up and log in

Guitar Tabs Explorer
The Mamas And The Papas bass tabs for I dig rock n roll music

I Dig Rock N Roll Music bass tab by The Mamas And The Papas

The Mamas And The Papas bass tabs for I dig rock n roll music

Bass tabs

m/mamas_and_the_papas/I_DIG_ROCK'N_ROLL_MUSIC.btab

TablEdited by Jan Bjorklund  <jani_bjorklund@yahoo.se>
You are welcome to request for tabs!
Fingering and positions as suggested by TablEdit, please use common sense.

TablEdited by Jan Bjorklund

Tuning : E A D G 	Time Signature: 4/4

 |        |        |        |
|----------------------------------------------------------------|
|0---------------0-----------------------------------------------|
|----------------------------0---0-------0-------3---3---4-------|
|----------------------------------------------------------------|

 |        |        |        |
|----------------------------------------------------------------|
|0---------------0-----------------------------------------------|
|----------------------------0---0-------0-------3---3---4-------|
|----------------------------------------------------------------|

 |        |        |        |
|----------------------------------------------------------------|
|0---------------0-----------------------------------------------|
|----------------------------0---0-------0-------3---3---4-------|
|----------------------------------------------------------------|

 |        |        |        |
|----------------------------------------------------------------|
|0---------------0-----------------------------------------------|
|----------------------------0---0-------0-------3---3---4-------|
|----------------------------------------------------------------|

 |        |        |        |
|----------------------------------------------------------------|
|0---------------0-----------------------------------------------|
|----------------------------0---0-------0-------3---3---4-------|
|----------------------------------------------------------------|

 |        |        |        |
|----------------------------------------------------------------|
|0---------------0-----------------------------------------------|
|----------------------------0---0-------0-------3---3---4-------|
|----------------------------------------------------------------|

 |        |        |        |
|----------------------------------------------------------------|
|0---------------0-----------------------------------------------|
|----------------------------0---0-------0-------3---3---4-------|
|----------------------------------------------------------------|

 |        |        |        |
|----------------------------------------------------------------|
|0---------------0---------------------------------------0-------|
|----------------------------0---0-------0-------3---4-----------|
|----------------------------------------------------------------|

 |        |        |        |
|------------------------------------------------4---------------|
|------------------------0-------4-------4-----------------------|
|2-------------------------------------------------------0-------|
|----------------------------------------------------------------|

 |        |        |        |
|------------------------------------------------0---------------|
|--------------------------------0-------0---------------0-------|
|------------------------2---------------------------------------|
|3---------------3-----------------------------------------------|

 |        |        |        |
|------------------------------------------------4---------------|
|------------------------0-------4-------4-----------------------|
|2-------------------------------------------------------0-------|
|----------------------------------------------------------------|

 |        |        |        |
|------------------------------------------------0---------------|
|--------------------------------0-------0---------------0-------|
|------------------------2---------------------------------------|
|3---------------3-----------------------------------------------|

 |        |        |        |
|------------------------------------------------4---------------|
|------------------------0-------4-------4---------------4-------|
|2---------------------------------------------------------------|
|----------------------------------------------------------------|

 |        |        |        |
|----------------------------------------------------------------|
|2-------------------------------2-------2-----------------------|
|------------------------2-------------------------------2-------|
|----------------------------------------------------------------|

 |        |        |        |
|----------------------------------------------------------------|
|----------------------------------------------------------------|
|0---------------------------------------------------------------|
|----------------------------------------------------------------|

 |        |        |        |
|----------------------------------------------------------------|
|----------------------------------------------------------------|
|----------------------------------------------------------------|
|----------------------------------------------------------------|

 |        |        |        |
|----------------------------------------------------------------|
|0---------------0-----------------------------------------------|
|----------------------------0---0-------0-------3---3---4-------|
|----------------------------------------------------------------|

 |        |        |        |
|----------------------------------------------------------------|
|0---------------0-----------------------------------------------|
|----------------------------0---0-------0-------3---3---4-------|
|----------------------------------------------------------------|

 |        |        |        |
|----------------------------------------------------------------|
|0---------------0-----------------------------------------------|
|----------------------------0---0-------0-------3---3---4-------|
|----------------------------------------------------------------|

 |        |        |        |
|----------------------------------------------------------------|
|----------------0-----------------------------------------------|
|----------------------------0---0-------0-------3---3---4-------|
|----------------------------------------------------------------|

 |        |        |        |
|----------------------------------------------------------------|
|0---------------0-----------------------------------------------|
|----------------------------0---0-------0-------3---3---4-------|
|----------------------------------------------------------------|

 |        |        |        |
|----------------------------------------------------------------|
|0---------------0-----------------------------------------------|
|----------------------------0---0-------0-------3---3---4-------|
|----------------------------------------------------------------|

 |        |        |        |
|----------------------------------------------------------------|
|0---------------0-----------------------------------------------|
|----------------------------0---0-------0-------3---3---4-------|
|----------------------------------------------------------------|

 |        |        |        |
|----------------------------------------------------------------|
|----------------0---------------------------------------0-------|
|----------------------------0---0-------0-------3---4-----------|
|----------------------------------------------------------------|

 |        |        |        |
|------------------------------------------------4---------------|
|------------------------0-------4-------4-----------------------|
|2-------------------------------------------------------0-------|
|----------------------------------------------------------------|

 |        |        |        |
|------------------------------------------------0---------------|
|--------------------------------0-------0---------------0-------|
|------------------------2---------------------------------------|
|3---------------3-----------------------------------------------|

 |        |        |        |
|------------------------------------------------4---------------|
|------------------------0-------4-------4-----------------------|
|2-------------------------------------------------------0-------|
|----------------------------------------------------------------|

 |        |        |        |
|------------------------------------------------0---------------|
|--------------------------------0-------0---------------0-------|
|------------------------2---------------------------------------|
|3---------------3-----------------------------------------------|

 |        |        |        |
|------------------------------------------------4---------------|
|------------------------0-------4-------4---------------4-------|
|2---------------------------------------------------------------|
|----------------------------------------------------------------|

 |        |        |        |
|----------------------------------------------------------------|
|2-------------------------------2-------2-----------------------|
|------------------------2-------------------------------2-------|
|----------------------------------------------------------------|

 |        |        |        |
|----------------------------------------------------------------|
|----------------------------------------------------------------|
|0---------------------------------------------------------------|
|----------------------------------------------------------------|

 |        |        |        |
|----------------------------------------------------------------|
|----------------------------------------------------------------|
|----------------------------------------------------------------|
|----------------------------------------------------------------|

 |        |        |        |
|----------------------------------------------------------------|
|0---------------0-----------------------------------------------|
|----------------------------0---0-------0-------3---3---4-------|
|----------------------------------------------------------------|

 |        |        |        |
|----------------------------------------------------------------|
|0---------------0-----------------------------------------------|
|----------------------------0---0-------0-------3---3---4-------|
|----------------------------------------------------------------|

 |        |        |        |
|----------------------------------------------------------------|
|0---------------0-----------------------------------------------|
|----------------------------0---0-------0-------3---3---4-------|
|----------------------------------------------------------------|

 |        |        |        |
|----------------------------------------------------------------|
|0---------------0-----------------------------------------------|
|----------------------------0---0-------0-------3---3---4-------|
|----------------------------------------------------------------|

 |        |        |        |
|----------------------------------------------------------------|
|0---------------0-----------------------------------------------|
|----------------------------0---0-------0-------3---3---4-------|
|----------------------------------------------------------------|

 |        |        |        |
|----------------------------------------------------------------|
|0---------------0-----------------------------------------------|
|----------------------------0---0-------0-------3---3---4-------|
|----------------------------------------------------------------|

 |        |        |        |
|----------------------------------------------------------------|
|0---------------0-----------------------------------------------|
|----------------------------0---0-------0-------3---3---4-------|
|----------------------------------------------------------------|

 |        |        |        |
|----------------------------------------------------------------|
|0---------------0---------------------------------------0-------|
|----------------------------0---0-------0-------3---4-----------|
|----------------------------------------------------------------|

 |        |        |        |
|------------------------------------------------4---------------|
|------------------------0-------4-------4-----------------------|
|2-------------------------------------------------------0-------|
|----------------------------------------------------------------|

 |        |        |        |
|------------------------------------------------0---------------|
|--------------------------------0-------0---------------0-------|
|------------------------2---------------------------------------|
|3---------------3-----------------------------------------------|

 |        |        |        |
|------------------------------------------------4---------------|
|------------------------0-------4-------4-----------------------|
|2-------------------------------------------------------0-------|
|----------------------------------------------------------------|

 |        |        |        |
|------------------------------------------------0---------------|
|--------------------------------0-------0---------------0-------|
|------------------------2---------------------------------------|
|3---------------3-----------------------------------------------|

 |        |        |        |
|------------------------------------------------4---------------|
|------------------------0-------4-------4---------------4-------|
|2---------------------------------------------------------------|
|----------------------------------------------------------------|

 |        |        |        |
|----------------------------------------------------------------|
|2-------------------------------2-------2-----------------------|
|------------------------2-------------------------------2-------|
|----------------------------------------------------------------|

 |        |        |        |
|----------------------------------------------------------------|
|----------------------------------------------------------------|
|0---------------------------------------------------------------|
|----------------------------------------------------------------|

 |        |        |        |
|----------------------------------------------------------------|
|----------------------------------------------------------------|
|----------------------------------------------------------------|
|----------------------------------------------------------------|

 |        |        |        |
|----------------------------------------------------------------|
|0---------------0-----------------------------------------------|
|----------------------------0---0-------0-------3---3---4-------|
|----------------------------------------------------------------|

 |        |        |        |
|----------------------------------------------------------------|
|0---------------0-----------------------------------------------|
|----------------------------0---0-------0-------3---3---4-------|
|----------------------------------------------------------------|

 |        |        |        |
|----------------------------------------------------------------|
|0---------------0-----------------------------------------------|
|----------------------------0---0-------0-------3---3---4-------|
|----------------------------------------------------------------|

 |        |        |        |
|----------------------------------------------------------------|
|0---------------0-----------------------------------------------|
|----------------------------0---0-------0-------3---3---4-------|
|----------------------------------------------------------------|

 |        |        |        |
|----------------------------------------------------------------|
|0---------------0-----------------------------------------------|
|----------------------------0---0-------0-------3---3---4-------|
|----------------------------------------------------------------|

 |        |        |        |
|----------------------------------------------------------------|
|0---------------0-----------------------------------------------|
|----------------------------0---0-------0-------3---3---4-------|
|----------------------------------------------------------------|

 |        |        |        |
|----------------------------------------------------------------|
|0---------------0-----------------------------------------------|
|----------------------------0---0-------0-------3---3---4-------|
|----------------------------------------------------------------|

 |        |        |        |
|----------------------------------------------------------------|
|0---------------0---------------------------------------0-------|
|----------------------------0---0-------0-------3---4-----------|
|----------------------------------------------------------------|

 |        |        |        |
|------------------------------------------------4---------------|
|------------------------0-------4-------4-----------------------|
|2-------------------------------------------------------0-------|
|----------------------------------------------------------------|

 |        |        |        |
|------------------------------------------------0---------------|
|--------------------------------0-------0---------------0-------|
|------------------------2---------------------------------------|
|3---------------3-----------------------------------------------|

 |        |        |        |
|------------------------------------------------4---------------|
|------------------------0-------4-------4-----------------------|
|2-------------------------------------------------------0-------|
|----------------------------------------------------------------|

 |        |        |        |
|------------------------------------------------0---------------|
|--------------------------------0-------0---------------0-------|
|------------------------2---------------------------------------|
|3---------------3-----------------------------------------------|

 |        |        |        |
|------------------------------------------------4---------------|
|------------------------0-------4-------4---------------4-------|
|2---------------------------------------------------------------|
|----------------------------------------------------------------|

 |        |        |        |
|----------------------------------------------------------------|
|2-------------------------------2-------2-----------------------|
|------------------------2-------------------------------2-------|
|----------------------------------------------------------------|

 |        |        |        |
|----------------------------------------------------------------|
|----------------------------------------------------------------|
|0---------------------------------------------------------------|
|----------------------------------------------------------------|

 |        |        |        |
|----------------------------------------------------------------|
|----------------------------------------------------------------|
|----------------------------------------------------------------|
|----------------------------------------------------------------|

 |        |        |        |
|----------------------------------------------------------------|
|0---------------0-----------------------------------------------|
|----------------------------0---0-------0-------3---3---4-------|
|----------------------------------------------------------------|

 |        |        |        |
|----------------------------------------------------------------|
|0---------------0-----------------------------------------------|
|----------------------------0---0-------0-------3---3---4-------|
|----------------------------------------------------------------|

 |        |        |        |
|----------------------------------------------------------------|
|0---------------0-----------------------------------------------|
|----------------------------0---0-------0-------3---3---4-------|
|----------------------------------------------------------------|

 |        |        |        |
|----------------------------------------------------------------|
|0---------------0-----------------------------------------------|
|----------------------------0---0-------0-------3---3---4-------|
|----------------------------------------------------------------|

 |        |        |        |
|----------------------------------------------------------------|
|0---------------0-----------------------------------------------|
|----------------------------0---0-------0-------3---3---4-------|
|----------------------------------------------------------------|

 |        |        |        |
|----------------------------------------------------------------|
|0---------------0-----------------------------------------------|
|----------------------------0---0-------0-------3---3---4-------|
|----------------------------------------------------------------|

 |        |        |        |
|----------------------------------------------------------------|
|0---------------0-----------------------------------------------|
|----------------------------0---0-------0-------3---3---4-------|
|----------------------------------------------------------------|

 |        |        |        |
|----------------------------------------------------------------|
|0---------------0-----------------------------------------------|
|----------------------------0---0-------0-------3---3---4-------|
|----------------------------------------------------------------|

 |        |        |        |
|----------------------------------------------------------------|
|0---------------0-----------------------------------------------|
|----------------------------0---0-------0-------3---3---4-------|
|----------------------------------------------------------------|

 |        |        |        |
|----------------------------------------------------------------|
|0---------------------------------------------------------------|
|----------------------------------------------------------------|
|----------------------------------------------------------------|




............................................................

Almost there ...

Sign in to get your own page with links to favourite songs and more. You are just one click away...

Login with Facebook Login with Google