Log in

One click and you are in

Login with Facebook Login with Google

Why sign up and log in

Guitar Tabs Explorer
The Mamas And The Papas bass tabs for I call your name

I Call Your Name bass tab by The Mamas And The Papas

The Mamas And The Papas bass tabs for I call your name

Bass tabs

Difficulty: 0


Tuning: EADG

0:09

G|------------------------------------------------------------------------------------------------|
D|------------------------------------7-----8-----9---------9-------------9---------9-------------|
A|5---------5-------------5---------5-------------------------9---------9-------------9-----8-----|
E|------------5---------5-------------------------------------------------------------------------|

G|------------------------------------------------------------------------------------------------|
D|------------------------------------------------------------------------------------------------|
A|7---------7-------------7---------7-------7-----------------7---------7-----------------4-------|
E|------------7---------7-------------7-----------5---------5-------------5---------5-7-----------|

0:28

G|------------------------------------------------------------------------------------------------|
D|------------------------------------7-----8-----9---------9-------------9---------9-------------|
A|5---------5-------------5---------5-------------------------9---------9-------------9-----8-----|
E|------------5---------5-------------------------------------------------------------------------|

G|--------------------------------------------------------------------------------------------------------|
D|--------------------------------------------------------------------------------------------------------|
A|7---------7-------7-\---------------------4-----5---------5-------------5-------------------------------|
E|------------7-----------5---------5-7-----------------------5---------5---------------------------------|

0:46

G|----------------------------------------------------------------|
D|5-----------5-------------------5-----------5---------------5---|
A|----------------5---5-------5-------------------5---5-----------|
E|----------------------------------------------------------------|

G|----------------------------------------------------------------|
D|----------------4---4-------4-------------------4---4-----------|
A|2-----------2-------------------2-----------2---------------2---|
E|----------------------------------------------------------------|

G|----------------------------------------------------------------|
D|2-----------2-------------------2-----------2---------------2---|
A|----------------2---2-------2-------------------2---2-----------|
E|----------------------------------------------------------------|

G|--------------------------------------------------------|
D|5---5---5---5---5---5---5---5---7-----------------------|
A|--------------------------------------------------------|
E|--------------------------------------------------------|

1:03

G|------------------------------------------------------------------------------------------------|
D|------------------------------------7-----8-----9---------9-------------9---------9-------9-----|
A|5---------5-------------5---------5-------------------------9---------9-------------9-----------|
E|------------5---------5-------------------------------------------------------------------------|

G|------------------------------------------------------------------------------------------------|
D|------------------------------------------------------------------------------------------------|
A|7---------7-------7-\---------------------4-----5---------5-------------5-----------------4-----|
E|------------7-----------5---------5-7-----------------------5---------5-------5-----7-----------|

1:22

G|------------------------------------------------------------------------------------------------|
D|------------------------------------7-----8-----9---------9-------------9---------9-------------|
A|5---------5-------------5---------5-------------------------9---------9-------------9-----8-----|
E|------------5---------5-------------------------------------------------------------------------|

G|--------------------------------------------------------------------------------------------------------|
D|--------------------------------------------------------------------------------------------------------|
A|7---------7-------7-\---------------------4-----5---------5-------------5-------------------------------|
E|------------7-----------5---------5-7-----------------------5---------5---------------------------------|

1:40

G|----------------------------------------------------------------|
D|5-----------5-------------------5-----------5---------------5---|
A|----------------5---5-------5-------------------5---5-----------|
E|----------------------------------------------------------------|

G|----------------------------------------------------------------|
D|----------------4---4-------4-------------------4---4-----------|
A|2-----------2-------------------2-----------2---------------2---|
E|----------------------------------------------------------------|

G|----------------------------------------------------------------|
D|2-----------2-------------------2-----------2---------------2---|
A|----------------2---2-------2-------------------2---2-----------|
E|----------------------------------------------------------------|

G|----------------------------------------------------------------|
D|5-----------5---5---5-------5---7---7---7---7---7---7---7---7---|
A|----------------------------------------------------------------|
E|----------------------------------------------------------------|

G|--------------------------------|
D|7-------------------------------|
A|--------------------------------|
E|--------------------------------|

1:59

G|----------------------------------------------------------------|
D|------------------------------------------------7-------7---8---|
A|5-----------5-------------------5-----------5-------5-----------|
E|----------------5-----------5-----------------------------------|

G|----------------------------------------------------------------|
D|9-----------9-------------------9-----------9-----------9-------|
A|----------------9-----------9-------------------9---9-------9---|
E|----------------------------------------------------------------|

G|----------------------------------------------------------------|
D|--------------------------------5-----------5-------5-----------|
A|7-----------7-----------7-----------------------5---------------|
E|----------------7---7-------7---------------------------5---7---|

G|--------------------------------------------------------------------------------|
D|----------------7-------7---8---9-----------------------------------------------|
A|5-----------5-------5-----------------------------------------------------------|
E|--------------------------------------------------------------------------------|

2:17

G|------------------------------------------------------------------------------------------------|
D|------------6-----------9-------------------6---5-----------------------------------5-----------|
A|7-----------------------------------7-----------------------5-----------2-----------------------|
E|------------------------------------------------------------------------------------------------|

G|------------------------------------------------------------------------------------------------|
D|3---3---3---3---3---3---3---3---3---3---3---3---------------------------------------------------|
A|------------------------------------------------5-----------------------------------------------|
E|------------------------------------------------------------------------------------------------|

Almost there ...

Sign in to get your own page with links to favourite songs and more. You are just one click away...

Login with Facebook Login with Google