Log in

One click and you are in

Login with Facebook Login with Google

Why sign up and log in

Guitar Tabs Explorer
The Mamas And The Papas bass tabs for Gemini childe

Gemini Childe bass tab by The Mamas And The Papas

The Mamas And The Papas bass tabs for Gemini childe

Bass tabs

Tuning: Standard (E A D G)

Difficulty: Novice


Tuning: EADG

G|------------|
D|7-------\---|
A|------------|
E|------------|

G|----------------------------------------------------------------|
D|----------------------------------------------------------------|
A|5-------------------3---5---5-----------5-----------3---5---5---|
E|----------------5-------------------------------5---------------|

G|----------------------------------------------------------------|
D|----------------------------------------------------------------|
A|--------5-----------3---5---5-----------5-----------3---5---5---|
E|----------------5-------------------------------5---------------|

0:11

G|----------------------------------------------------------------|
D|----------------------------------------------------------------| x3
A|--------5-----------3---5---5-----------5-----------3---5---5---|
E|----------------5-------------------------------5---------------|

G|----------------------------------------------------------------|
D|----------------------------------------------------------------|
A|--------5-----------3---5---5-----------5-----------3-------5---|
E|----------------5-------------------------------5---------------|

0:31

G|----------------------------------------------------------------|
D|5-------5-----------3---5---5-----------5-----------3---5---5---|
A|----------------5-------------------------------5---------------|
E|----------------------------------------------------------------|

G|----------------------------------------------------------------|
D|--------5-----------3---5---5-------3---------------------------|
A|----------------5---------------------------5-------3-------4---|
E|----------------------------------------------------------------|

G|----------------------------------------------------------------|
D|----------------------------------------------------------------|
A|5-------5-----------3---5---5-----------5-----------3---5---5---|
E|----------------5-------------------------------5---------------|

G|----------------------------------------------------------------|
D|----------------------------------------------------------------|
A|--------5-----------3---5---5-----------5-----------3-------5---|
E|----------------5-------------------------------5---------------|

0:51

G|----------------------------------------------------------------|
D|----------------------------------------------------------------|
A|5-------5-----------3---5---5-----------5-----------3---5---5---|
E|----------------5-------------------------------5---------------|

G|----------------------------------------------------------------|
D|----------------------------------------------------------------| x2
A|--------5-----------3---5---5-----------5-----------3---5---5---|
E|----------------5-------------------------------5---------------|

G|----------------------------------------------------------------|
D|----------------------------------------------------------------|
A|--------5-----------3---5---5-----------5-----------3-------5---|
E|----------------5-------------------------------5---------------|

1:11

G|----------------------------------------------------------------|
D|5-------5-----------3---5---5-----------5-----------3---5---5---|
A|----------------5-------------------------------5---------------|
E|----------------------------------------------------------------|

G|----------------------------------------------------------------|
D|--------5-----------3---5---5-------3---------------------------|
A|----------------5---------------------------5-------3-------4---|
E|----------------------------------------------------------------|

G|----------------------------------------------------------------|
D|----------------------------------------------------------------|
A|5-------5-----------3---5---5-----------5-----------3---5---5---|
E|----------------5-------------------------------5---------------|

G|----------------------------------------------------------------|
D|----------------------------------------------------------------|
A|--------5-----------3---5---5-----------5---------------3-/-5---|
E|----------------5-------------------------------5---------------|

G|--------------------------------------------------------------------|
D|7-------------------------------5-----------------------------------|
A|--------------------------------------------------------------------|
E|--------------------------------------------------------------------|

1:36

G|----------------------------------------------------------------|
D|3-----------3---3-----------3-/-9-----------9-------------------|
A|--------------------------------------------------------9-------|
E|------------------------------------------------7---------------|

G|------------------------------------------------|
D|------------------------------------7---10------|
A|7-----------7---8---------------8---------------|
E|------------------------------------------------|

G|----------------------------------------------------------------|
D|9-----------9---------------------------------------------------|
A|----------------9---------------7-----------7---7-----------7---|
E|------------------------7---------------------------------------|

1:53

G|9---------------9---------------7---------------7---------------|
D|--------7---------------7---------------7---------------7-------|
A|----------------------------------------------------------------|
E|----------------------------------------------------------------|

G|7---------------7-------------------------------|
D|--------5---------------9-----------------------|
A|--------------------------------7-----------7---|
E|------------------------------------------------|

G|----------------------------------------------------------------|
D|7-----------7-------------------7-----------7-----------7-------|
A|----------------------------------------------------------------|
E|----------------5-----------5-------------------5---------------|

2:10

G|----------------------------------------------------------------|
D|----------------------------------------------------------------|
A|5-----------5---3-----------3-----------------------------------|
E|--------------------------------3-----------3---5-----------5---|

G|----------------------------------------------------------------|
D|----------------------------------------------------------------|
A|5-------5-----5-------------3---5-------5---------------3---5---|
E|----------------5---5---------------------------5---5-----------|

G|----------------------------------------------------------------|
D|5-----------5---4-----------4---2-----------2-------2-------2-/-|
A|----------------------------------------------------------------|
E|----------------------------------------------------------------|

G|----------------------------------------------------------------|
D|7-------7-----\-------------5---7-------7-------------------7---|
A|----------------7---7---------------------------7---7-----------|
E|----------------------------------------------------------------|

2:34

G|----------------------------------------------------------------|
D|----------------4-----5-7-------5-----------------------2-------|
A|5-----------5-------------------------------5---3---------------|
E|----------------------------------------------------------------|

G|----------------------------------------------------------------|
D|----------------------------------------------------------------|
A|5-------5-----5-------------3---5-------5-----5---------3---5---|
E|----------------5---5---------------------------5---5-----------|

G|----------------------------------------------------------------|
D|5---5---5---5---4---4---4---4---2---2---2---2---2---2---2---2---|
A|----------------------------------------------------------------|
E|----------------------------------------------------------------|

G|----------------------------------------------------------------|
D|2/7-----7-----7-------------5-5-7-------7-----------------------|
A|----------------7---7-----7---------------------7---------------|
E|--------------------------------------------------------5-------|

G|----------------------------------------------------------------|
D|--------------------------------3-------------------------3-/---|
A|----------------------------------------------------------------|
E|----------------------------------------------------------------|

3:03

G|------------------------------------------------|
D|9-----------------------------------------------|
A|------------7-----------9-------7-----------7---|
E|----------------7-------------------------------|

G|--------------------------------|
D|--------------------7---10------|
A|8---------------8---------------|
E|--------------------------------|

G|----------------------------------------------------------------|
D|9---------------------------------------------------------------|
A|------------9-----------9-------7-----------7---7-------7-------|
E|----------------7-----------------------------------------------|

3:15

G|9---------------9---------------7---------------7---------------|
D|--------7---------------7---------------7---------------7-------|
A|----------------------------------------------------------------|
E|----------------------------------------------------------------|

G|7---------------7-------------------------------|
D|--------5---------------9-----------------------|
A|--------------------------------7-----------7---|
E|------------------------------------------------|

G|----------------------------------------------------------------|
D|7---7---7---7---7---7---7---7---7---7---7---7---7---7---7---7---|
A|----------------------------------------------------------------|
E|----------------------------------------------------------------|

3:31

G|----------------------------------------------------------------|
D|----------------------------------------------------------------|
A|5---------------3-----------------------------------------------|
E|--------------------------------3-----------3---5---------------|

G|----------------------------------------------------------------|
D|----------------------------------------------------------------|
A|5-------5-----5-------------3---5-------5-----5---------3---5---|
E|----------------5---5---------------------------5---5-----------|

G|----------------------------------------------------------------|
D|5---5---5---5---4---4---4---4---2---2---2---2---2---2---2---/---|
A|----------------------------------------------------------------|
E|----------------------------------------------------------------|

G|----------------------------------------------------------------|
D|7-------7-----7---------5---7---7-------7-----7-----5-------7---|
A|----------------7---7---------------------------7---------------|
E|----------------------------------------------------------------|

3:54

G|----------------------------------------4-------5-----------4---|
D|----------------4---5---7-------5---7---------------------------|
A|5-----------7---------------------------------------------------|
E|----------------------------------------------------------------|

G|7-------7-----7-------------5---7---7-------7-------5-------7---|
D|----------------7---7-------------7-------7-------7-------7-----| fades out here.
A|----------------------------------------------------------------|
E|----------------------------------------------------------------|

Almost there ...

Sign in to get your own page with links to favourite songs and more. You are just one click away...

Login with Facebook Login with Google