Log in

One click and you are in

Login with Facebook Login with Google

Why sign up and log in

Guitar Tabs Explorer
The Mamas And The Papas bass tabs for Do you wanna dance

Do You Wanna Dance bass tab by The Mamas And The Papas

The Mamas And The Papas bass tabs for Do you wanna dance

Bass tabs

Tabbed by: 6METAL6BASSIST6
E-mail: petergriffinav@gmail.com


Tuning: EADG

0:09

G|----------------------------------------------------------------|
D|6---------------6-------6---5---4---------------4-------4---3---|
A|------------6-------6-----------------------4-------4-----------|
E|----------------------------------------------------------------|

G|----------------------------------------------------------------|
D|2---------------2-------2---4-----------------------------------|
A|------------2-------2-----------2---2-------2---2---2---2---2---|
E|----------------------------------------------------------------|

0:18

G|----------------------------------------------------------------|
D|2---------------2-------2---3---4---------------4-------4---5---|
A|------------2-------2-----------------------4-------------------|
E|----------------------------------------------------------------|

G|----------------------------------------------------------------|
D|6---------------6-------6---5---4---------------4-------4---3---|
A|------------6-------------------------------4-------------------|
E|----------------------------------------------------------------|

G|----------------------------------------------------------------|
D|2---------------2-------2---3---4-----------4-----------4-------| x2
A|------------2-------2---------------------------2---2-------2---|
E|----------------------------------------------------------------|

0:36

G|----------------------------------------------------------------|
D|2---------------2-------2---3---4---------------4-------4---5---|
A|------------2-------2-----------------------4-------4-----------|
E|----------------------------------------------------------------|

G|----------------------------------------------------------------|
D|6---------------6-------6---5---4---------------4-------4---3---|
A|------------6-------------------------------4-------4-----------|
E|----------------------------------------------------------------|

G|----------------------------------------------------------------|
D|2---------------2-------2---3---4-----------4-----------4-------|
A|------------2-------2---------------------------2---2-------2---|
E|----------------------------------------------------------------|

G|----------------------------------------------------------------|
D|2---------------2-------2---3---4---4-------4-----------4-------|
A|------------2-------2---------------------------2---2-------2---|
E|----------------------------------------------------------------|

0:51

G|----------------------------------------------------------------|
D|2---------------2-------2---3---4---------------4-------4---5---|
A|------------2-------2-----------------------4-------------------|
E|----------------------------------------------------------------|

G|----------------------------------------------------------------|
D|6---------------6-------6---5---4---------------4-------4---3---|
A|------------6-------------------------------4-------4-----------|
E|----------------------------------------------------------------|

G|----------------------------------------------------------------|
D|2---------------2-------2---3---4-----------4-----------4-------|
A|------------2-------2---------------------------2---2-------2---|
E|----------------------------------------------------------------|

G|----------------------------------------------------------------|
D|2---------------2-------2---3---4---4-------4-----------4-------|
A|------------2-------2---------------------------2---2-------2---|
E|----------------------------------------------------------------|

1:11

G|----------------------------------------------------------------|
D|2---2---2---2---2---2---2---2---4-------4---------------4-------| x2
A|--------------------------------------------2-------2-------4---|
E|----------------------------------------------------------------|

G|----------------------------------------------------------------|
D|2---2---2---2---2---2---2---2---4-----------4---4-----4-----4---|
A|----------------------------------------------------------------|
E|----------------------------------------------------------------|

G|----------------------------------------------------------------|
D|6---6---6---6---6---6---6---6---------------------------4-------|
A|--------------------------------2---2---2---2---2---2-------2---|
E|----------------------------------------------------------------|

1:29

G|----------------------------------------------------------------|
D|2-------2-------2-------2---3---4-------4-------4-------4---5---|
A|------------2-------2-----------------------4-------4-----------|
E|----------------------------------------------------------------|

G|----------------------------------------------------------------|
D|6-------6-------6-------6---5---4-------4-------4-------4---3---|
A|------------6-------6-----------------------4-------4-----------|
E|----------------------------------------------------------------|

G|----------------------------------------------------------------|
D|2-------2-------2-------2---3---4-------4-------4-------4---5---|
A|------------2-------2-----------------------4-------4-----------|
E|----------------------------------------------------------------|

G|--------------------------------4---4---4---4---4---4---4---\---|
D|6---6---6---6---6---6---6---------------------------------------|
A|----------------------------------------------------------------|
E|----------------------------------------------------------------|

1:46

G|----------------------------------------------------------------|
D|2---------------2-------2---3---4---------------4-------4---5---|
A|------------2-------2-----------------------4-------4-----------|
E|----------------------------------------------------------------|

G|----------------------------------------------------------------|
D|6---------------6-------6---5---4-------4-------4-------4---3---|
A|------------6-------6-----------------------4-------4-----------|
E|----------------------------------------------------------------|

G|----------------------------------------------------------------|
D|2---------------2-------2---3---4-----------4-----------4-------| x2
A|------------2-------2---------------------------2---2-------2---|
E|----------------------------------------------------------------|

2:01

G|----------------------------------------------------------------|
D|2---2---2---2---2---2---2---2---4-------4---------------4-------| x2
A|--------------------------------------------2-------2-------4---|
E|----------------------------------------------------------------|

G|----------------------------------------------------------------|
D|2---2---2---2---2---2---2---2---4-----------4---4-----4-----4---|
A|----------------------------------------------------------------|
E|----------------------------------------------------------------|

G|----------------------------------------------------------------|
D|6-------6---6---6---6---6-------4-------------------------------|
A|----------------------------------------------------------------|
E|----------------------------------------------------------------|

G|--------------------------------|
D|--------------------------------|
A|--------------------------------|
E|--------------------------------|

2:25

G|----------------------------------------------------------------|.
D|2---------------2-------2---3---4---------------4-------4---5---|.
A|------------2-------2-----------------------4-------4-----------|.
E|----------------------------------------------------------------|.
                                  . x2
G|----------------------------------------------------------------|.
D|6---------------6-------6---5---4---------------4-------4---3---|.
A|------------6-------6-----------------------4-------4-----------|.
E|----------------------------------------------------------------|.

G|----------------------------------------------------------------|
D|2---------------2-------2---3---4-------4-------4-------4---5---|
A|------------2-------2-----------------------4-------4-----------|
E|----------------------------------------------------------------|

G|----------------------------------------------------------------|
D|6-------6-------6-------6---5---4-------4-------4-------4---3---|
A|------------6-------6-----------------------4-------4-----------|
E|----------------------------------------------------------------|

G|----------------------------------------------------------------|
D|2-------2-------2-------2---3---4-------4-------4-------4---5---| fades out here.
A|------------2-------2-----------------------4-------4-----------|

Almost there ...

Sign in to get your own page with links to favourite songs and more. You are just one click away...

Login with Facebook Login with Google