Log in

One click and you are in

Login with Facebook Login with Google

Why sign up and log in

Guitar Tabs Explorer
The Mamas And The Papas bass tabs for Dedicated to the one i love

Dedicated To The One I Love bass tab by The Mamas And The Papas

The Mamas And The Papas bass tabs for Dedicated to the one i love

Bass tabs

Mamas & the Papas - DedicatedToTheOne I Love.btab

TablEdited by Jan Bjorklund  <jani_bjorklund@yahoo.se>
You are welcome to request for tabs!
Fingering and positions as suggested by TablEdit, please use common sense.

Tuning : E A D G 	Time Signature: 2/2

 |    |    |    |    |    |    |    |
|----------------|----------------|----------------|----------------|
|----------------|----0-----0-----|----0-----0-----|----0-----0-----|
|----------------|----------------|----------------|----------------|
|----------------|----------------|----------------|----------------|

 |    |    |    |    |    |    |    |
|----------------|----------------|----------------|----------------|
|----0-----0-----|----------------|----------------|----------------|
|----------------|------------2---|--------2---2---|----3-----3-----|
|----------------|----3-----3---3-|----0-----0---0-|----------------|

 |    |    |    |    |    |    |    |
|----------------|----------------|----------------|----------------|
|----0-----0-----|----------------|----------------|----------------|
|----------------|----------------|--------2---2---|----3-----3-----|
|----------------|----3-----3-----|----0-----0---0-|----------------|

 |    |    |    |    |    |    |    |
|----------------|----------------|----------------|----------------|
|----0-----0-----|----------------|----------------|----------------|
|----------------|----------------|----2---2-2-2-2-|----0-----------|
|----------------|----0-----0-----|----------------|----------------|

 |    |    |    |    |    |    |    |
|----------------|----------------|----------------|----------------|
|----0-0---0-----|----------------|----------------|----0-----------|
|----------------|----------------|----------------|----------------|
|----------------|----3-3-3-3-3-3-|----3-----3-----|----------------|

 |    |    |    |    |    |    |    |
|----------------|----------------|----------------|----------------|
|----0-----0-----|--------0-------|----0---0---0---|----0-0-0-0-----|
|----------------|----------------|----------------|----------------|
|----------------|----3-----3-----|3---------------|----------------|

 |    |    |    |    |    |    |    |
|----------------|----------------|----------------|----------------|
|----0-----------|----------0-----|----0---0---0---|----0---0-0-0---|
|----------------|----------------|----------------|--------------0-|
|----------3-----|----3-----------|3---------------|----------------|

 |    |    |    |    |    |    |    |
|----------------|----------------|----------------|----------------|
|----0-----0-----|----------------|----------0-----|----------0-----|
|----------------|----------------|----------------|----------------|
|----------------|----3-3-3-3-----|----3-----------|----3-3-3-------|

 |    |    |    |    |    |    |    |
|----------------|----------------|----------------|----------------|
|----------------|----------------|----------------|----------------|
|----------------|----------------|----------------|----------------|
|----------------|----3-----------|----3-3-3-3-3-3-|----3-3-3-3-3-3-|

 |    |    |    |    |    |    |    |
|----------------|----------------|----------------|----------------|
|----------------|----------------|----------------|----------------|
|----------------|----------------|----------------|----------------|
|----3-----3-3---|----3---3-3-----|----3---3-3-3-3-|----3---3-3-----|

 |    |    |    |    |    |    |    |
|----------------|----------------|----------------|----------------|
|----------------|----------------|----------------|----------------|
|----------------|----------------|----------------|----------------|
|----3---3-3-3---|----3-----------|----3-3-3-3-3---|----3-3---3-3---|

 |    |    |    |    |    |    |    |
|----------------|----------------|----------------|----------------|
|----------------|----------------|----------------|----0-----0-----|
|----------------|----0-0---0-0---|----0-----0-----|----------------|
|----3-3-3-3-----|----------------|----------------|----------------|

 |    |    |    |    |    |    |    |
|----------------|----------------|----------------|----------------|
|----0-0-0-0-0-0-|----0-0-0-------|----0-----0-----|--------0-------|
|----------------|----------------|----------------|----------------|
|----------------|----------------|----------------|----3-----3-----|

 |    |    |    |    |    |    |    |
|----------------|----------------|----------------|----------------|
|----0---0---0---|----0-0-0-0-----|----0-----------|----------0-----|
|----------------|----------------|----------------|----------------|
|3---------------|----------------|----------3-----|----3-----------|

 |    |    |    |    |    |    |    |
|----------------|----------------|----------------|----------------|
|----0---0---0---|----0---0-0-0---|----0-----0-----|----------------|
|----------------|--------------0-|----------------|----------------|
|3---------------|----------------|----------------|----0-----0-----|

 |    |    |    |    |    |    |    |
|----------------|----------------|----------------|----------------|
|----------------|----------------|----0-0---0-----|----------------|
|----2-----2-----|----0-----0-----|----------------|----------------|
|----------------|----------------|----------------|----3-3-3-3-3-3-|

 |    |    |    |    |    |    |    |
|----------------|----------------|----------------|----------------|
|----------------|----------------|----------------|----------------|
|----------------|----------------|----------------|----------------|
|----3-3-3-3-3-3-|----3-3-3-3-3-3-|----3-3-3-3-3-3-|----3-3-3-3-3-3-|

 |    |    |    |    |    |    |    |
|----------------|----------------|----------------|----------------|
|----------------|----------------|----------------|----------------|
|----------------|----------------|----------------|----------------|
|----3-3-3-3-3-3-|----3-3-3-3-3-3-|----3-3-3-3-3-3-|----3-3-3-3-----|

 |    |    |    |    |    |    |    |
|----------------|----------------|----------------|----------------|
|----------------|----------------|----------------|----------------|
|----2-----------|----------------|----2-----3-----|----2-----2-----|
|----------0-----|----3-----3-----|----------------|----------------|

 |    |    |    |    |    |    |    |
|----------------|----------------|----------------|----------------|
|----1---------1-|----1-----1-----|----0---0-0-0-0-|----0-0-0-0-0-0-|
|------------1---|----------------|----------------|----------------|
|----------------|----------------|----------------|----------------|

 |    |    |    |    |    |    |    |
|----------------|----------------|----------------|----------------|
|----0-0-0-------|----0-----0-----|--------0-------|----0---0---0---|
|----------------|----------------|----------------|----------------|
|----------------|----------------|----3-----3-----|3---------------|

 |    |    |    |    |    |    |    |
|----------------|----------------|----------------|----------------|
|----0-0-0-0-----|----0-----------|----------0-----|----0---0---0---|
|----------------|----------------|----------------|----------------|
|----------------|----------3-----|----3-----------|3---------------|

 |    |    |    |    |    |    |    |
|----------------|----------------|----------------|----------------|
|----0---0-0-0---|----0-----0-----|----------------|----------0-----|
|--------------0-|----------------|----------------|----------------|
|----------------|----------------|----3-3-3-3-----|----3-----------|

 |    |    |    |    |    |    |    |
|----------------|----------------|----------------|----------------|
|----------0-----|----------------|----------------|----------------|
|----------------|----------------|----------------|----------------|
|----3-3-3-------|----------------|----0-----------|----0-----------|

 |    |    |    |    |    |    |    |
|----------------|----------------|----------------|----------------|
|----------------|----------------|----------------|----------------|
|----3-----------|----3-----------|----0-----------|----0-----------|
|----------------|----------------|----------------|----------------|

 |    |    |    |    |    |    |    |
|----------------|----------------|----------------|----------------|
|----------------|----------------|----------------|----------------|
|----------------|----------------|----------------|----------------|
|----3-----------|----------------|----------------|----------------|



............................................................

Almost there ...

Sign in to get your own page with links to favourite songs and more. You are just one click away...

Login with Facebook Login with Google