Log in

One click and you are in

Login with Facebook Login with Google

Why sign up and log in

Guitar Tabs Explorer
The Mamas And The Papas bass tabs for Dancing bear

Dancing Bear bass tab by The Mamas And The Papas

The Mamas And The Papas bass tabs for Dancing bear

Bass tabs

Tabbed by: 6METAL6BASSIST6
E-mail: petergriffinav@gmail.com


Tuning: EADG

0:45

G|----------------------------------------------------------------|
D|--------3-------4-------6-------8-------4-------6-------4-------|
A|6---------------------------------------------------------------|
E|----------------------------------------------------------------|

G|----------------------------------------------------------------|
D|------------3---4-----------6---8-----------4---6-----------3---|
A|6---------------------------------------------------------------|
E|----------------------------------------------------------------|

G|----------------------------------------------------------------|
D|4---------------3---------------------------3---4-----------6---|
A|------------6---------------4---6-------------------------------|
E|----------------------------------------------------------------|

G|----------------------------------------------------------------|
D|8-----------4---6-----------3---4-----------6---8-----------4---|
A|----------------------------------------------------------------|
E|----------------------------------------------------------------|

G|--------------------------------|
D|------------3---4-----------6-/-|
A|6-------------------------------|
E|--------------------------------|

G|----------------------------------------------------------------|
D|8-------------/-8-------------/-8-------------/-8-------------/-|
A|----------------------------------------------------------------|
E|----------------------------------------------------------------|

1:06

G|----------------------------------------------------------------|
D|8-------------/-9---------------------------------------------/-|
A|--------------------------------8---6---5---6---6-------5-------|
E|----------------------------------------------------------------|

G|----------------------------------------------------------------|
D|8-------------/-9---------------------------------------------/-|
A|--------------------------------8---6---5---6---6---------------|
E|----------------------------------------------------------------|

G|----------------------------------------------------------------|
D|8---------------8-------------/-8---------------8---------------|
A|----------------------------------------------------------------|
E|----------------------------------------------------------------|

G|--------------------------------|
D|----------------8-------6-------|
A|--------------------------------|
E|--------------------------------|

G|----------------------------------------------------------------|
D|--------3-------4-------6-------8-------4-------6-------4-------|
A|6---------------------------------------------------------------|
E|----------------------------------------------------------------|

1:24

G|----------------------------------------------------------------|
D|------------3---4-----------6---8-----------4---6-----------3---|
A|6---------------------------------------------------------------|
E|----------------------------------------------------------------|

G|----------------------------------------------------------------|
D|4---------------3---------------------------3---4-----------6---|
A|------------6---------------4---6-------------------------------|
E|----------------------------------------------------------------|

G|----------------------------------------------------------------|
D|8-----------4---6-----------4---------------3---4-----------6---|
A|--------------------------------6-------------------------------|
E|----------------------------------------------------------------|

G|--------------------------------|
D|4-----------4---4-----------6-/-|
A|--------------------------------|
E|--------------------------------|

G|----------------------------------------------------------------|
D|8-------------/-8-------------/-8-------------/-8-------------/-|
A|----------------------------------------------------------------|
E|----------------------------------------------------------------|

1:42

G|------------------------------------------------------------------------------------------------|
D|8---------------------/-8---------------------/-8---------------------/-8---------------------/-|
A|------------------------------------------------------------------------------------------------|
E|------------------------------------------------------------------------------------------------|

G|--------------------------------------------------------------------------------|
D|8----------------------/-8--------------------/-8-------------------------------|
A|--------------------------------------------------------------------------------|
E|--------------------------------------------------------------------------------|

G|----------------------------------------------------------------|
D|--------3-------4-------6-------8-------4-------6-------4-------|
A|6---------------------------------------------------------------|
E|----------------------------------------------------------------|

1:56

G|----------------------------------------------------------------|
D|------------3---4-----------6---8-----------4---6-----------3---|
A|6---------------------------------------------------------------|
E|----------------------------------------------------------------|

G|----------------------------------------------------------------|
D|4---------------3---------------------------3---4-----------6---|
A|------------6---------------4---6-------------------------------|
E|----------------------------------------------------------------|

G|----------------------------------------------------------------|
D|8-----------4---6-----------3---4-----------6---8-----------4---|
A|----------------------------------------------------------------|
E|----------------------------------------------------------------|

G|--------------------------------|
D|------------4---6-------4-----/-|
A|6-------------------------------|
E|--------------------------------|

G|----------------------------------------------------------------|
D|8-------------/-8-------------/-8-------------/-8-------------/-|
A|----------------------------------------------------------------|
E|----------------------------------------------------------------|

2:14

G|----------------------------------------------------------------|
D|8-------------/-9---------------------------------------------/-| x2
A|--------------------------------8---6---5---6---6---------------|
E|----------------------------------------------------------------|

G|----------------------------------------------------------------|
D|8---------------8-------------/-8---------------8---------------|
A|----------------------------------------------------------------|
E|----------------------------------------------------------------|

G|--------------------------------|
D|----------------8-------6-------|
A|--------------------------------|
E|--------------------------------|

G|----------------------------------------------------------------|
D|--------3-------4-------6-------8-------4-----------------------|
A|6-----------------------------------------------6-------6-------|
E|----------------------------------------------------------------|

2:31

G|8---------------------------------------------------------------|
D|--------9-------9-------8-------6-------4-------4---------------|
A|--------------------------------------------------------6-------|
E|----------------------------------------------------------------|

G|----------------------------------------------------------------|
D|9-------8-------6-------4---------------------------------------|
A|--------------------------------6-------6---6---6-------6-------|
E|----------------------------------------------------------------|

G|----------------------------------------------------------------|
D|9-------8-------6-------4-------4-------------------------------|
A|----------------------------------------4-------4-------4-------|
E|----------------------------------------------------------------|

G|--------------------------------|
D|4-----------4---4-------4-----/-|
A|--------------------------------|
E|--------------------------------|

G|----------------------------------------------------------------|
D|8-------------/-8-------------/-8-------------/-8-------------/-|
A|----------------------------------------------------------------|
E|----------------------------------------------------------------|

2:49

G|------------------------------------------------------------------------------------------------|
D|8---------------------/-8---------------------/-8---------------------/-8---------------------/-|
A|------------------------------------------------------------------------------------------------|
E|------------------------------------------------------------------------------------------------|

G|--------------------------------------------------------------------------------|
D|8----------------------/-8--------------------/-8-------------------------------|
A|--------------------------------------------------------------------------------|
E|--------------------------------------------------------------------------------|

G|----------------------------------------------------------------|
D|--------3-------4-------6-------8-------4-------6-------4-------|
A|6---------------------------------------------------------------|
E|----------------------------------------------------------------|

3:04 Until bass fades out.

G|----------------------------------------------------------------|
D|------------3---4-----------6---8-----------4---6-----------3---|
A|6---------------------------------------------------------------|
E|----------------------------------------------------------------|

G|----------------------------------------------------------------|
D|4---------------3---------------------------3---4-----------6---|
A|------------6---------------4---6-------------------------------|
E|----------------------------------------------------------------|

G|----------------------------------------------------------------|
D|------------3---4-----------6---8-----------4---6-----------3---|
A|6---------------------------------------------------------------|
E|----------------------------------------------------------------|

G|----------------------------------------------------------------|
D|4---------------3---------------------------3---4-------6-------|
A|------------6---------------4---6-------------------------------|

Almost there ...

Sign in to get your own page with links to favourite songs and more. You are just one click away...

Login with Facebook Login with Google