Log in

One click and you are in

Login with Facebook Login with Google

Why sign up and log in

Guitar Tabs Explorer
The Mamas And The Papas bass tabs for California dreaming (Ver. 2)

California Dreaming bass tab by The Mamas And The Papas (Ver. 2)

The Mamas And The Papas bass tabs for California dreaming (Ver. 2)

Bass tabs

---------------------------------------------------------------------
      The Mamas and the Papas - California Dreaming
---------------------------------------------------------------------

Tuning: Standard

Rest for 1st 4 bars
1-4 Verse
E|----------------|----------------|----------------|----------------|
A|----------------|----------------|----------------|----------------|
D|4-----4-2-----2-|0-----0-2-----2-|----------------|--------------0-|
G|----------------|----------------|4-----4-4-----4-|4-----4-4-------|

5-8
G|----------------|----------------|----------------|----------------|
D|2-----2---------|----------------|----------------|----------------|
A|----------------|4-----4-0-----0-|----------------|--------------3-|
E|--------4-----4-|----------------|4-----4-4-----4-|4-----4-4-3-4---|

9-12
G|----------------|----------------|----------------|----------------|
D|----------------|----------------|----------------|----------------|
A|4-----4-2-----2-|0-----0-2-----2-|----------------|--------------3-|
E|----------------|----------------|4-----4-4-----4-|4-----4-4-3-4---|

13-16
G|----------------|----------------|----------------|----------------|
D|----------------|----------------|----------------|----------------|
A|4-4-4-4-2-2-2-2-|0-0-0-0-2-2-2-2-|----------------|--------------3-|
E|----------------|----------------|4-4-4-4-4-4-4-4-|4-4-4-4-4-3-4---|

17-20 Verse
E|----------------|----------------|----------------|----------------|
A|----------------|----------------|----------------|----------------|
D|4-----4-2-----2-|0-----0-2-----2-|----------------|--------------0-|
G|----------------|----------------|4-----4-4-----4-|4-----4-4-------|

21-24
G|----------------|----------------|----------------|----------------|
D|2-----2---------|----------------|----------------|----------------|
A|----------------|4-----4-0-----0-|----------------|--------------3-|
E|--------4-----4-|----------------|4-----4-4-----4-|4-----4-4-3-4---|

25-28
G|----------------|----------------|----------------|----------------|
D|----------------|----------------|----------------|----------------|
A|4-----4-2-----2-|0-----0-2-----2-|----------------|--------------3-|
E|----------------|----------------|4-----4-4-----4-|4-----4-4-3-4---|

29-32
G|----------------|----------------|----------------|----------------|
D|----------------|----------------|----------------|----------------|
A|4-4-4-4-2-2-2-2-|0-0-0-0-2-2-2-2-|----------------|--------------3-|
E|----------------|----------------|4-4-4-4-4-4-4-4-|4-4-4-4-4-3-4---|

33-36 Solo
G|----------------|----------------|----------------|----------------|
D|----------------|----------------|----------------|----------------|
A|4-4-4-4-4-4-4---|4-4-4-4-4-4-4---|4-4-4-4-4-4-4---|4-4-4-4-0-0-0-0-|
E|--------------4-|--------------4-|--------------4-|----------------|

37-40
G|----------------|----------------|----------------|----------------|
D|----------------|----------------|----------------|----------------|
A|2-2-2-2---------|4-4-4-4-0-0-0-0-|----------------|--------------3-|
E|--------4-4-4-4-|----------------|4-4-4-4-4-4-4-4-|4-4-4-4-4-4-4---|

41-44
G|----------------|----------------|----------------|----------------|
D|----------------|----------------|----------------|----------------|
A|4-4-4-4-2-2-2-2-|0-0-0-0-2-2-2-2-|----------------|--------------3-|
E|----------------|----------------|4-4-4-4-4-4-4-4-|4-4-4-4-4-3-4---|

45-48
G|----------------|----------------|----------------|----------------|
D|----------------|----------------|----------------|----------------|
A|4-4-4-4-2-2-2-2-|0-0-0-0-2-2-2-2-|----------------|--------------3-|
E|----------------|----------------|4-4-4-4-4-4-4-4-|4-4-4-4-4-3-4---|

49-52 Verse
E|----------------|----------------|----------------|----------------|
A|----------------|----------------|----------------|----------------|
D|4-----4-2-----2-|0-----0-2-----2-|----------------|--------------0-|
G|----------------|----------------|4-----4-4-----4-|4-----4-4-------|

53-56
G|----------------|----------------|----------------|----------------|
D|2-----2---------|----------------|----------------|----------------|
A|----------------|4-----4-0-----0-|----------------|--------------3-|
E|--------4-----4-|----------------|4-----4-4-----4-|4-----4-4-3-4---|

57-60
G|----------------|----------------|----------------|----------------|
D|----------------|----------------|----------------|----------------|
A|4-----4-2-----2-|0-----0-2-----2-|----------------|--------------3-|
E|----------------|----------------|4-----4-4-----4-|4-----4-4-3-4---|

65-68 Ending
G|----------------|----------------|----------------|----------------|
D|----------------|----------------|----------------|----------------|
A|4-----4-2-----2-|0-----0-2-----2-|4-----4-2-----2-|0-----0-2-----2-|
E|----------------|----------------|----------------|----------------|

69-72
G|----------------|----------------|----------------|----------------|
D|----------------|----------------|----------------|----------------|
A|4-----4-2-----2-|0-----0-2-----2-|0-0-0-0-0-0-0-0-|0-0-0-0-0-0-0-0-|
E|----------------|----------------|----------------|----------------|

73
G|----------------|
D|----------------|
A|4---------------|
E|----------------|

Credit to Jan.Bjorklund.

Other versions of California Dreaming

California dreamingBass tabs

Almost there ...

Sign in to get your own page with links to favourite songs and more. You are just one click away...

Login with Facebook Login with Google