One Step Beyond by Madness

One Step Beyond tab by Madness

Guitar tabs

Chords to be played behind are: Cm Fm


e|------------------------------------------------------------------|
B|------------------------------------------------------------------|
G|------------------------------------------------------------------|
D|------6~-------------------6~-------------------6-----------------|
A|----7-----9-7-9-7--------7-----9-7-9-7--------7---9-7-9-7-9p7-----|
E|--9---------------9~---9---------------9~---9-----------------9-9-|

e|-------------------------------------------------------------------------|
B|-------------------------------------------------------------------------|
G|----5-8~--8-9-8-9-8-13-13\8----------------------------------------------|
D|--6-------------------------------6~-------------------------------------|
A|--------------------------------7-----9-7-9-7-----9-7-9-7-----9-7-9-7----|
E|------------------------------9---------------9~----------9~----------9--|

e|--------------9----------------------------------------|
B|------------9---9--------------------------------------|
G|-------9-11-------13-13-11-13-11-13-11-13p11-----------|
D|--9-11---------------------------------------14-11~----|
A|-------------------------------------------------------|
E|-------------------------------------------------------|

e|------------------------------------------------------------|
B|------------------------------------------------------------|
G|--13-13--13-11-13-11-13-11--13-13-13-16-18--16/18--16-18~---|
D|------------------------------------------------------------|
A|------------------------------------------------------------|
E|------------------------------------------------------------|

e|--------------------------------------------------------|
B|--------------------------------------------------------|
G|--13-16-16--13-16-13-16---13---16--13--16---13--16--13--|
D|--------------------------------------------------------|
A|--------------------------------------------------------|
E|--------------------------------------------------------|

e|--------------------------------------------------------|
B|--------------------------------------------------------|
G|--16p13/11-13p11/9-11p9/8-9p8/6--8-6---6----------------|
D|-------------------------------------6---9-6-9--9-7-6---|
A|--------------------------------------------------------|
E|--------------------------------------------------------|

e|-------------------------------------|
B|-------------------------------------|
G|----11-13-----11-13---13-------------|
D|-13--------13------------------------|
A|--------------------------1--1-------|
E|-------------------------------------|

e|------------------------------------------------------------------------|
B|------------------------------------------------------------------------|
G|----------------------------------------------5-8~-8-9-8-9-8-13-13/8----|
D|------6~------------------6-----------------6---------------------------|
A|----7-----9-7-9-7-------7----9-7-9-7------------------------------------|
E|--9---------------9~--9--------------9~---------------------------------|

e|-------------------------------------------------------------------------|
B|-------------------------------------------------------------------------|
G|-----------------------------------------------5-8~-8-9-8-9-8-13-13/8----|
D|------6~------------------6~-----------------6---------------------------|
A|----7-----9-7-9-7-------7-----9-7-9-7------------------------------------|
E|--9---------------9~--9---------------9~---------------------------------|

e|--------------------------------------------------------------------------|
B|--------------------------------------------------------------------------|
G|-----------------------------------------------------------6~~~~~~~~~~~~--|
D|------6~------------------6~-----------------------------6--------------9-|
A|----7-----9-7-9-7-------7-----9-7-9-7-9p7----------9-7-9------------------|
E|--9---------------9~--9-------------------9-9~---9------------------------|



************************************

| p Pull-off
| / Slide up
| \ Slide down
| ~ Vibrato

One Step Beyond tab

Madness tabs for One step beyond These guitar tabs are for the title track of British ska-rockers Madness' 1979 album, "One Step Beyond".

"One Step Beyond" by Madness was released on October 26, 1979.

Find guitar tabs and chords

A B C D E F G H I J K L M N O P Q R S T U V W X Y Z #