Guitar Tabs Explorer
Luis Fonsi bass tabs for Despacito

Despacito bass tab


5 / 5 [2 votes]

Jamplay guitar lessons

Despacito bass tab by Luis Fonsi

Bass tabs

Print

Intro:
(0:08)
G|---------------|---------------|---------------|--------------|
D|-4-------------|-4-------------|-7-4-----------|--------------|
A|---5--2--------|---5-----------|------5--------|---7----------|
E|---------------|------3--------|---------------|-5----5~------|

(0:30)
G|---------------|---------------|---------------|--------------|
D|-4-------------|---------------|-7-4-----------|--------------|
A|---5--2--------|---------------|------5--------|--------------|
E|---------------|------3--------|---------------|------5-------|

Verse:
(0:40)
G|---------------|---------------|---------------|--------------|
D|----0-4----0-4-|---------------|----4-7----4-7-|--------------|
A|-2------2------|----2-5----2-5-|-5------5------|----4-7---4-7-|
E|---------------|-3------3------|---------------|-5------5-----|

G|---------------|---------------|---------------|--------------|
D|----0-4----0-4-|---------------|----4-7----4-7-|--------------|
A|-2------2------|----2-5----2-5-|-5------5------|---7----------|
E|---------------|-3------3------|---------------|-5---5--------|

Chorus:
(1:03)
G|---------------|---------------|---------------|--------------|
D|----0-4----0-4-|---------------|----4-7----4-7-|--------------|
A|-2------2------|----2-5----2-5-|-5------5------|---7-4--------|
E|---------------|-3------3------|---------------|-5-----5-5----| (x2)

(1:26)
G|-----------------------|------------------------|-----------------------|------------------------|
D|---------0-4-------0-4-|------------------------|--------4-7--------4-7-|------------------------|
A|-2--2-2-----2--2-2-----|--------2-5---------2-5-|-5--5-5-----5--5-5-----|--------4-7--5-----4----|
E|-----------------------|-3--3-3-----3--3-3------|-----------------------|-5--5-5-----------------|

G|-----------------------|------------------------|-----------------------|------------------------|
D|---------0-4-------0-4-|------------------------|--------4-7--------4-7-|------------------------|
A|-2--2-2-----2--2-2-----|--------2-5---------2-5-|-5--5-5-----5--5-5-----|--------4-7-------------|
E|-----------------------|-3--3-3-----3--3-3------|-----------------------|-5--5-5-----------------|

Verse:
(1:46)
G|---------------|---------------|----------------|--------------|
D|----0-4----0-4-|---------------|----4-7--------7|--------------|
A|-2------2------|----2-5----2-5-|-5---------5-5--|----4-7-------|
E|---------------|-3------3------|----------------|-5------- 5-5-|

G|---------------|---------------|---------------|---------------|
D|----0-4----0-4-|---------------|----4-7----4-7-|---------------|
A|-2------2------|----2-5----2-5-|-5------5------|----4-7--------|
E|---------------|-3------3------|---------------|-5------5------| (x2)

G|----7-11----7-11-|----4-7----4-7-|-----11--14-----11-14-|----6-9---------|
D|-9-------9-------|-5------5------|-12---------12--------|-7--------------|
A|-----------------|---------------|----------------------|----------------|
E|-----------------|---------------|----------------------|----------------|

Chorus:
(2:30)
G|---------------|---------------|---------------|---------------|
D|----0-4----0-4-|---------------|----4-7----4-7-|---------------|
A|-2------2------|----2-5----2-5-|-5------5------|---7-4---------|
E|---------------|-3------3------|---------------|-5-----5-5-----| (x2)

(2:52)
G|-----------------------|------------------------|-----------------------|------------------------|
D|---------0-4-------0-4-|------------------------|--------4-7--------4-7-|------------------------|
A|-2--2-2-----2--2-2-----|--------2-5---------2-5-|-5--5-5-----5--5-5-----|--------4-7--5-----4----|
E|-----------------------|-3--3-3-----3--3-3------|-----------------------|-5--5-5-----------------|

G|-----------------------|------------------------|-----------------------|------------------------|
D|---------0-4-------0-4-|------------------------|--------4-7--------4-7-|------------------------|
A|-2--2-2-----2--2-2-----|--------2-5---------2-5-|-5--5-5-----5--5-5-----|--------4-7-------------|
E|-----------------------|-3--3-3-----3--3-3------|-----------------------|-5--5-5-----------------|

Outro:
(3:24)
G|-----------------------|------------------------|-----------------------|------------------------|
D|---------0-4-------0-4-|------------------------|--------4-7--------4-7-|------------------------|
A|-2--2-2-----2--2-2-----|--------2-5---------2-5-|-5--5-5-----5--5-5-----|--------4-7--5---4---2--|

Comment this song and these bass tabs

Do you have corrections, comments on the bass tabs, thoughts about the song or a message to the author? Write them below.