Log in

One click and you are in

Login with Facebook Login with Google

Why sign up and log in

Guitar Tabs Explorer
Loggins And Messina bass tabs for Angry eyes

Bass tabs

Tuning: Standard (E A D G)


Intro:
G|---------------------|
D|---------------------|
A|-------------0-0-3h5-| x5
D|-0--0-3--0-5---------|

Verse 1:
G|-------------|---------|---------|
D|-------------|---------|-2--4--5-|
A|-5--5--0-3h5-|-0-2h3-3-|---------|
D|-------------|---------|---------|

G|-------------|---------|-------|
D|-------------|---------|-------|
A|-5--5--0-3h5-|-0-2h3-3-|-------|
D|-------------|---------|-2-3-5-|


Chorus:
G|-------------|---------------------|
D|-------------|--------3-4-5--5-5-5-|
A|-5-5--0-3-5-5|-0-2-3---------------|
D|-------------|---------------------|


Verse 2:
G|-------------|---------|---------|
D|-------------|---------|-2--4--5-|
A|-5--5--0-3h5-|-0-2h3-3-|---------|
D|-------------|---------|---------|

G|-------------|---------|-------|
D|-------------|---------|-------|
A|-5--5--0-3h5-|-0-2h3-3-|-------|
D|-------------|---------|-2-3-5-|

Chorus:
G|-------------|-----------------|--------------|--------------------|
D|-------------|-----------------|--------------|-------3-4-5--5-5-5-|
A|-5-5--0-3-5-5|-0-2-3-------2-3-|-5-5--0-3-5-5-|-0-2-3--------------|
D|-------------|-------2-3-5-----|--------------|--------------------|

Interlude:
G|-7-5----------------|-7-7--7-7-----------|-7-5---------------|
D|-----7-5--2-2h3-2---|----------2-2h3-2---|-----7-5-----------|
A|------------------5-|------------------5-|---------2-2h3-2---|
D|--------------------|--------------------|-----------------0-|


Bridge:
G|-------------|---------------|
D|-------------|---------------| x6
A|---3-5-------|-5-3-------3-5-|
D|-3-----3-5-0-|-----5-3-5-----|

Sax & Guitar Solo: 1:53
G|------------------------|------------------------|
D|------------------------|------------------------| x15
A|------------------------|------------------------|
D|-0--0-3--3-5-3-5--3-5-3-|-0--0-3--3-5-3-5--3-5-3-|

3:37:
G|---------------------|---------------------|
D|---------------------|---------------------|
A|-------------0-0-3h5-|-------------0-0-3h5-| x15
D|-0--0-3--0-5---------|-0--0-3--0-5---------|


Break: 5:02
G|---------------|---------------------|---------------|
D|---------------|---------------------|---------------|
A|---------------|-------------0-0-3h5-|---------------|
D|-3h5-5--5--3-3-|-0--0-3--0-5---------|-3h5-5--5--3-3-|

G|-----------------------|------7-------7------7-|---------------|
D|-----------------------|-----------------------|---------------|
A|-2-3-5-5--2-3-5-5--2-3-|---5-------5-------5---|-5--3--5--8----|
D|-----------------------|-0---0---0---0---0-----|-------------0-|

Flute solo: 5:27
G|-----------|----------------|
D|-----------|----------------|
A|--5-3------|------------3h5-| x11
D|-----5-3-0-|-5-3-0--3h5-----|


Break: 6:03
G|-------------------|----------------------------|
D|-3-5---------------|----------------------------|
A|-----3-5-----------|--5-3-------------------3h5-| x3
D|---------0-2-3-5-0-|------5-3-0--5-3-0--3h5-----|


Break: 6:15
G|-------------------|----------------------------|
D|-3-5---------------|----------------------------|
A|-----3-5-----------|--5-3-------------------3h5-| x3
D|---------0-2-3-5-0-|------5-3-0--5-3-0--3h5-----|

G|-------------------|
D|-3-5---------------|
A|-----3-5-----------|
D|---------0-2-3-5-0-|


Break: 6:31
G|--------------------|----------------|--------------|--------------|
D|-3-2----------------|-3-2------------|-3-2----------|-3-2----------|
A|-----5-3--3--5-5--5-|-----5-3--3-5-5-|-----5-3--3-5-|-----5-3--3-5-|
D|--------------------|----------------|--------------|--------------|

G|-------------|---------------|
D|-------------|-3-2-----------|
A|---------3-5-|-----5-3--3-5\-|
D|-0-2-3-5-----|---------------|


Verse 3:
G|-------------|---------|---------|
D|-------------|---------|-2--4--5-|
A|-5--5--0-3h5-|-0-2h3-3-|---------|
D|-------------|---------|---------|

G|-------------|---------|-------|
D|-------------|---------|-------|
A|-5--5--0-3h5-|-0-2h3-3-|-------|
D|-------------|---------|-2-3-5-|


Chorus:
G|-------------|-----------------|--------------|--------------------|
D|-------------|-----------------|--------------|-------3-4-5--5-5-5-|
A|-5-5--0-3-5-5|-0-2-3-------2-3-|-5-5--0-3-5-5-|-0-2-3--------------|
D|-------------|-------2-3-5-----|--------------|--------------------|


Outro:
G|-7-5----------------|-7-5----------------|-7-5--------------|---------|
D|-----7-5--2-2h3-2---|-----7-5--2-2h3-2---|-----7-5--2-2h3-2-|---------|
A|------------------5-|------------------5-|------------------|-3--5----|
D|--------------------|--------------------|------------------|-------0-|


************************************

| h  Hammer-on
| /  Slide up
| \  Slide down

************************************

Almost there ...

Sign in to get your own page with links to favourite songs and more. You are just one click away...

Login with Facebook Login with Google