Guitar Tabs Explorer
The Living End guitar chords for Amsterdam

Amsterdam chords


Be the first to rate

Amsterdam chords by The Living End

Guitar chords with lyrics

Print

INTRO: F chord diagramFF Em chord diagramEmEm F chord diagramFF Em chord diagramEmEm


Verse: 1
F chord diagramFF                            Em chord diagramEmEm
  Where in the world did you run to?
F chord diagramFF                    Em chord diagramEmEm
  Will you ever come back?
F chord diagramFF                Em chord diagramEmEm
  Sometimes I forget you
Dm chord diagramDmDm                         G chord diagramGG
  But I'm alright with that
F chord diagramFF                  Em chord diagramEmEm
  Words of love unspoken
F chord diagramFF                                Em chord diagramEmEm
  Wrongs that should've been put right
F chord diagramFF                        Em chord diagramEmEm
  Early arrival Saturday morning
Dm chord diagramDmDm                    G chord diagramGG
  But you checked out Friday night


          F chord diagramFF  Em chord diagramEmEm
Oh Amsterdam
Am chord diagramAmAm                 G chord diagramGG F chord diagramFF  Em chord diagramEmEm
  I don't know who I am
Am chord diagramAmAm                       G chord diagramGG   F chord diagramFF  Em chord diagramEmEm
  Or where I stand Oh Amsterdam
             Am chord diagramAmAm              Em chord diagramEmEm
You'll never have that time again
        F chord diagramFF                    Em chord diagramEmEm             Am chord diagramAmAm
But now I'm, I'm never going back to Amsterdam


Verse: 2
F chord diagramFF                           Em chord diagramEmEm
  I put all that I had on a losing horse
F chord diagramFF                                Em chord diagramEmEm
  Should've backed myself instead
F chord diagramFF                                          Em chord diagramEmEm
  And I'm always the first one to point my finger
Dm chord diagramDmDm                            G chord diagramGG
  And the last one to make my bed


          F chord diagramFF  Em chord diagramEmEm
Oh Amsterdam
Am chord diagramAmAm                 G chord diagramGG F chord diagramFF  Em chord diagramEmEm
  I don't know who I am
Am chord diagramAmAm                       G chord diagramGG   F chord diagramFF  Em chord diagramEmEm
  Or where I stand Oh Amsterdam
             Am chord diagramAmAm              Em chord diagramEmEm
You'll never have that time again
        F chord diagramFF                    Em chord diagramEmEm             Am chord diagramAmAm  Em chord diagramEmEm
But now I'm, I'm never going back to Amsterdam
    F chord diagramFF               Em chord diagramEmEm             Am chord diagramAmAm  G chord diagramGG
And I'm never going back to Amsterdam


 Instrumental
   G chord diagramGG     F chord diagramFF           Em chord diagramEmEm         Am chord diagramAmAm          Am chord diagramAmAm       G chord diagramGG
e|-----|-----------|----------|-----------|--------------|
b|---8-|-10--------|-12-------|-10--------|------------8-|
g|-----|-----------|------9---|-----------|--------------|
d|-----|-----------|----------|-----------|--------------|
a|-----|-----------|----------|-----------|--------------|
e|-----|-----------|----------|-----------|--------------|

   F chord diagramFF           Em chord diagramEmEm         Am chord diagramAmAm          Am chord diagramAmAm       G chord diagramGG
e|-----------|----------|-----------|--------------|
b|-10--------|-12-------|-10--------|------------8-|
g|-----------|----------|-----------|--------------|
d|-----------|----------|-----------|--------------|
a|-----------|----------|-----------|--------------|
e|-----------|----------|-----------|--------------|

   F chord diagramFF           Em chord diagramEmEm         Am chord diagramAmAm          Am chord diagramAmAm
e|-----------|----------|-----------|--------------|
b|-10--------|-12-------|-13--------|------------8-|
g|-----------|----------|-----------|--------------|
d|-----------|----------|-----------|--------------|
a|-----------|----------|-----------|--------------|
e|-----------|----------|-----------|--------------|

   Dm chord diagramDmDm          Dm chord diagramDmDm         G chord diagramGG
e|-----------|----------|-----------|
b|-10--------|--------8-|-10--------|
g|-----------|----------|-----------|
d|-----------|----------|-----------|
a|-----------|----------|-----------|
e|-----------|----------|-----------|


          F chord diagramFF  Em chord diagramEmEm
Oh Amsterdam
Am chord diagramAmAm                 G chord diagramGG F chord diagramFF  Em chord diagramEmEm
  I don't know who I am
         Am chord diagramAmAm               G chord diagramGG    F chord diagramFF      Em chord diagramEmEm
I'd give anything for one more chance
       Am chord diagramAmAm               Em chord diagramEmEm
And to have that time again
      F chord diagramFF                    Em chord diagramEmEm             Am chord diagramAmAm  Em chord diagramEmEm
But I know I'm never going back to Amsterdam
F chord diagramFF                     Em chord diagramEmEm
  Now I'm never going back
F chord diagramFF                     Em chord diagramEmEm
  Now I'm never going back
F chord diagramFF                     Em chord diagramEmEm             Am chord diagramAmAm
  Now I'm never going back to Amsterdam

Comment this song and these guitar chords

Do you have corrections, comments on the guitar chords, thoughts about the song or a message to the author? Write them below.