Log in

One click and you are in

Login with Facebook Login with Google

Why sign up and log in

Guitar Tabs Explorer
Little Jesus bass tabs for Azul

Bass tabs

Little Jesús-azul
álbum: Norte
esta es mi primera tab
cualquier duda díganme
Hecha por: Kevin Real
Intro:
G|----------------------------|
D|----------------------------|
A|-10-10-10-10-10-10-10-10-10-|
E|----------------------------|

0:05
G|-----------------------------|
D|--12-12-12-10-9--------------|
A|----------------10-----------|
E|-----------------------------|

G|------------------------------|
D|------------------------------|
A|--7-7-7-7-5-7-7-7-7-5-7-7-7-7-|
E|------------------------------|

Dime que va ser de ti...

G|----------------------------|
D|----------------------------|
A|-10-10-10-10-10-10-10-10-10-|
E|----------------------------|

0:19

G|------------------------------|
D|------------------------------|
A|--7-7-7-7-5-7-7-7-7-5-7-7-7-7-|
E|------------------------------|

Naves Espaciales Que...

G|----------------------------|
D|----------------------------|
A|-10-10-10-10-10-10-10-10-10-|
E|----------------------------|

0:33
G|------------------------------|
D|------------------------------|
A|--7-7-7-7-5-7-7-7-7-5-7-7-7-7-|
E|------------------------------|

Quien mas va a creer

G|------------------------------|
D|------------------------------| X4
A|--3-------0-2-0-2-------------| (En el cuarto tiempo se queda en sol y cambia a re)
E|----3-0-3---------------------|

1:02
G|-------------------|
D|-------------------|
A|--5-5-5-5-5-5-5-5-5|
E|-------------------|

1:05
G|----------------------------|
D|----------------------------|
A|-10-10-10-10-10-10-10-10-10-|
E|----------------------------|


G|-----------------------------|
D|--12-12-12-10-9--------------|
A|----------------10-----------|
E|-----------------------------|


G|------------------------------|
D|------------------------------|
A|--7-7-7-7-5-7-7-7-7-5-7-7-7-7-|
E|------------------------------|


Tu y yo somos igual
G|----------------------------|
D|----------------------------|
A|-10-10-10-10-10-10-10-10-10-|
E|----------------------------|

G|------------------------------|
D|------------------------------|
A|--7-7-7-7-5-7-7-7-7-5-7-7-7-7-|
E|------------------------------|


G|----------------------------|
D|----------------------------|
A|-10-10-10-10-10-10-10-10-10-|
E|----------------------------|

G|------------------------------|
D|------------------------------|
A|--7-7-7-7-7-7-7-7-7-7-7-7-7-7-|
E|------------------------------|

1:43
G|-----------------------|
D|-----7-5---------------|
A|---------7-5-----------|
E|-----------------------|

2:04

G|------------------------------|
D|------------------------------|
A|--3---------------------------|
E|----3-0-3---------------------|

G|-------------------|
D|-------------------|
A|--5-5-5-5-5-5-5-5-5|
E|-------------------|


G|---------------------------------------|
D|---------------------------------------|
A|--3-3--------------0-0-0-0-2-0-0-0-0-2-| x4 (En el cuarto tiempo se queda en sol y cambia a re)
E|------3-3-0-0-3-3----------------------|

G|-------------------|
D|-------------------|
A|--5-5-5-5-5-5-5-5-5|
E|-------------------|


Se repite

G|----------------------------|
D|----------------------------|
A|-10-10-10-10-10-10-10-10-10-|
E|----------------------------|

0:05
G|-----------------------------|
D|--12-12-12-10-9--------------|
A|----------------10-----------|
E|-----------------------------|

G|------------------------------|
D|------------------------------|
A|--7-7-7-7-5-7-7-7-7-5-7-7-7-7-|
E|------------------------------|


3:15
G|------------------------------|
D|------------------------------|
A|------------------------------|
E|3-3-3-3-3-3-3-3-3-3-3-3-3-3-3-|

G|------------------------------|
D|------------------------------|
A|------------------------------|
E|0-0-0-0-0-0-0-0-0-0-0-0-0-0-0-|

Almost there ...

Sign in to get your own page with links to favourite songs and more. You are just one click away...

Login with Facebook Login with Google