Search tabs and chords

Search for song, artist or band

Log in

One click and you are in

Login with Facebook Login with Google

Why sign up and log in

Guitar Tabs Explorer
Led Zeppelin bass tabs for Custard pie (Ver. 2)

Bass tabs

  • Tuning: Standard tuning
  • Difficulty: Novice
-------------------------------------------------------------------
                     Artist - Led Zeppelin
                    ***********************
                      Song - Custard Pie
                     ********************
                Album - Physical Graffiti (1975)
               **********************************
                    Tabbed By - Ayreon77
                   **********************
-------------------------------------------------------------------
Tuning = Standard
Bass Comes in at 00:10


00:10
VERSE 1
********
G|-----------------|-----------------|-----------------|-----------------|
D|----------7--5-7-|----------7--5-7-|----------7--5-7-|----------7--5-7-|
A|-----------------|-----------------|-----------------|-----------------|
E|-5--5--5---------|-5--5--5---------|-5--5--5---------|-5--5--5---------|


G|-----------|----------|----------|-----------------|-----------------|
D|-----------|----------|----------|----------7--5-7-|----------7--5-7-|
A|-3-4-5~~~~-|-5-4-3~~~-|-3-2-1~~~-|-----------------|-----------------|
E|-----------|----------|----------|-5--5--5---------|-5--5--5---------|


G|-----------|--------------|
D|-----------|-5~~~~~-------|
A|-5-6-7~~~~-|--------------|
E|-----------|---------1--3-|

------------------------
00:36
BREAK
******
G|-----------------|---------------------|
D|----------7--5-7-|----------7--5-7-5-7-|
A|-----------------|---------------------|
E|-5--5--5---------|-5--5--5-------------|


------------------------
00:42
VERSE 2
********
G|-----------------|-----------------|-----------------|-----------------|
D|----------7--5-7-|----------7--5-7-|----------7--5-7-|----------7--5-7-|
A|-----------------|-----------------|-----------------|-----------------|
E|-5--5--5---------|-5--5--5---------|-5--5--5---------|-5--5--5---------|


G|-----------|----------|----------|-----------------|-----------------|
D|-----------|----------|----------|----------7--5-7-|----------7--5-7-|
A|-3-4-5~~~~-|-5-4-3~~~-|-3-2-1~~~-|-----------------|-----------------|
E|-----------|----------|----------|-5--5--5---------|-5--5--5---------|


G|-----------|--------------|
D|-----------|-5~~~~~-------|
A|-5-6-7~~~~-|--------------|
E|-----------|---------1--3-|


------------------------
01:08
BREAK
******
G|-----------------|-------------------|
D|----------7--5-7-|----------7--5-7---|
A|-----------------|-------------------|
E|-5--5--5---------|-5--5--5---------5-|


------------------------
01:13
VERSE 3
********
G|-----------------|-----------------|-----------------|-----------------|
D|----------7--5-7-|----------7--5-7-|----------7--5-7-|----------7--5-7-|
A|-----------------|-----------------|-----------------|-----------------|
E|-5--5--5---------|-5--5--5---------|-5--5--5---------|-5--5--5---------|


G|-----------|----------|----------|-----------------|-----------------|
D|-----------|----------|----------|----------7--5-7-|----------7--5-7-|
A|-3-4-5~~~~-|-5-4-3~~~-|-3-2-1~~~-|-----------------|-----------------|
E|-----------|----------|----------|-5--5--5---------|-5--5--5---------|


G|-----------|--------------|
D|-----------|-5~~~~~-------|
A|-5-6-7~~~~-|--------------|
E|-----------|---------1--3-|


------------------------
01:39
SOLO
*****
G|-----------------|-----------------------|-----------------|-----------------|
D|----------7--5-7-|-----------7---5~~-5-7-|----------7--5-7-|----------7--5-7-|
A|-----------------|-------------7---------|-----------------|-----------------|
E|-5--5--5---------|-5--5--5---------------|-5--5--5---------|-5--5--5---------|


G|-----------------|-----------------|-----------|----------|----------|
D|----------7--5-7-|----------7--5-7-|-----------|----------|----------|
A|-----------------|-----------------|-7-6-5~~~~-|-5-4-3~~~-|-3-2-1~~~-|
E|-5--5--5---------|-5--5--5---------|-----------|----------|----------|


G|-----------------|-----------------|-----------|--------------|
D|----------7--5-7-|----------7--5-7-|-----------|--------------|
A|-----------------|-----------------|-5-6-7~~~~-|--------------|
E|-5--5--5---------|-5--5--5---------|-----------|-3~~~~~--1--3-|


G|-----------------|-----------------------|
D|----------7--5-7-|-----------7---5~~-5-7-|
A|-----------------|-------------7---------|
E|-5--5--5---------|-5--5--5---------------|


------------------------
02:16
CHORUS
*******
G|-----------------|-----------------|-----------------|-----------------|
D|----------7--5-7-|----------7--5-7-|----------7--5-7-|----------7--5-7-|
A|-----------------|-----------------|-----------------|-----------------|
E|-5--5--5---------|-5--5--5---------|-5--5--5---------|-5--5--5---------|


G|-----------|----------|----------|-----------------|-----------------|
D|-----------|----------|----------|----------7--5-7-|----------7--5-7-|
A|-3-4-5~~~~-|-5-4-3~~~-|-3-2-1~~~-|-----------------|-----------------|
E|-----------|----------|----------|-5--5--5---------|-5--5--5---------|


G|-----------|--------------|
D|-----------|-5~~~~~-------|
A|-5-6-7~~~~-|--------------|
E|-----------|---------1--3-|


------------------------
02:42
HARMONICA/OUTRO
****************
G|-----------------|---------------------|-----------------|---------------------|
D|----------7--5-7-|----------7--5-7-5-7-|----------7--5-7-|----------7--5-7-5-7-|
A|-----------------|---------------------|-----------------|---------------------|
E|-5--5--5---------|-5--5--5-------------|-5--5--5---------|-5--5--5-------------|

02:52
G|-----------------|---------------------|-----------------|---------------------|
D|----------7--5-7-|----------7--5-7-5-7-|----------7--5-7-|----------7--5-7-----|
A|-----------------|---------------------|-----------------|---------------------|
E|-5--5--5---------|-5--5--5-------------|-5--5--5---------|-5--5--5---------0-3-|

03:03
G|-----------------|---------------------|-----------------|------------------|
D|----------7--5-7-|----------7--5-7-5-7-|----------7--5-7-|------------------|
A|-----------------|---------------------|-----------------|------------------|
E|-5--5--5---------|-5--5--5-------------|-5--5--5---------|-5--5--5--0-1-2-3-|

03:14
G|-------------------|---------------------|-----------------|--------------------|
D|------------7--5-7-|----------7--5-7-5-7-|----------7--5-7-|--------------------|
A|-------------------|---------------------|-----------------|--------------------|
E|-5--5--0-5---------|-5--5--5-------------|-5--5--5---------|-5--5---0-1-2-3-4-5-|

03:24
G|-----------------|---------------------|-----------------|-----------------|
D|-------7--7--5-7-|----------7--5-7-5-7-|----------7--5-7-|----------7--5-7-|
A|-----------------|---------------------|-----------------|-----------------|
E|-5--5------------|-5--5--5-------------|-5--5--5---------|-5--5--5---------|

03:35
G|-----------------|------------------|-----------------|-------------------|
D|----------7--5-7-|------------------|----------7--5-7-|----------7--5-7---|
A|-----------------|------------------|-----------------|-----------------3-|
E|-5--5--5---------|-5--5--5--0-1-2-3-|-5--5--5---------|-5--5--5-----------|

03:45                                      Fade Out............................
G|-----------------|---------------------|-----------------|-------------------|
D|----------7--5-7-|----------7--5-7-5-7-|----------7--5-7-|----------7--5-7---|
A|-----------------|---------------------|-----------------|-----------------3-|
E|-5--5--5---------|-5--5--5-------------|-5--5--5---------|-5--5--5-----------|

.......................................
G|-----------------|-------------------|
D|----------7--5-7-|----------7--5-7---|
A|-----------------|-----------------3-|
E|-5--5--5---------|-5--5--5-----------|


ENJOY.............

Custard Pie bass tab

Led Zeppelin bass tabs for Custard pie (Ver. 2) From there great Double Album Physical Graffiti released in 1975.

Other versions of Custard Pie

Custard pieBass tabs

Almost there ...

Sign in to get your own page with links to favourite songs and more. You are just one click away...

Login with Facebook Login with Google