Log in

One click and you are in

Login with Facebook Login with Google

Why sign up and log in

Guitar Tabs Explorer
Kutless tabs for Hearts of the innocent

Solo tabs

HEy i got the rest
 Pre chorus
Dropped A chord diagramC#C#

[-----7-----------10-----------7---8-7]
[-8-------8---8--------8---8----------]
[---9---9---9---9----9---9---9---9----]
[-------------------------------------]
[-------------------------------------]
[-------------------------------------]

[-----------]
[-----------]
[-----------]
[-2-4-57-4-0]
[-2-4-57-4-0]
[-2-4-57-4-0]

Chorus listen for rythm
x8x8
[-]-]--]-------------]
[-]-]--]-------------]
[-]-]12]-------------]Play 2 times
[2]5]10]-------------]
[2]5]10]----------5-5]
[2]5]10]-02-02-02/5-5]

Play intro then
[---------------------------]
[-12------------------------]
[----14-12-12h14p12-12------]
[----------------------12-12]
[---------------------------]
[---------------------------]
Play Again then
[----------------------------------------]
[----------------------------------------]
[1212121212121212999999991212121212121212]
[1010101010101010777777771010101010101010]
[1010101010101010777777771010101010101010]
[1010101010101010777777771010101010101010]
Then
[-----------]
[-----------]
[-----------]
[-2-4-57-4-0] this the outro too
[-2-4-57-4-0]
[-2-4-57-4-0]

ⓘ Guitar tab for 'Hearts Of The Innocent' by Kutless, an alternative rock band formed in 1999 from Portland, Oregon, USA

Other versions of Hearts Of The Innocent

Hearts of the innocentTabs

Almost there ...

Sign in to get your own page with links to favourite songs and more. You are just one click away...

Login with Facebook Login with Google