Guitar Tabs Explorer
Krewella bass tabs for Say goodbye

Say Goodbye bass tab


5 / 5 [1 vote]


CritiasAuthor: Critias

Say Goodbye bass tab by Krewella

`Say Goodbye` is a single by American electronic dance music band Krewella. It was the first single released by Krewella since the departure of member Kris `Rain man` Trindl. It was released on November 24, 2014 during a livestream in which viewers thought they were going to speak out about the recent lawsuit involving band member Trindl Officialy there is no bass tabs neither bass guitar in the song, I decided to created because(and you can check out by yourselves) adding a bass guitar sound along with that normal guitar makes it heavier and stronger and even greater for the everyone who listens to the song... I rated it intermediate due to the speed changes and added the start and finish time for each riff to help out on this speed changing thing...I hope you like it ~ CRITIAS~...... BTW: Dont copy and paste in other pages and take the credits for yourselves, thats not cool at all.

Bass tabs

Print
  • Tuning: Standard tuning
  • Difficulty: Intermediate

Krewella - Say Goodbye

Intro(Starts on 0:06 and finishes at 0:33)

G|---------------------------------------------------------------|
D|---------------------------------------------------------------|
A|---------------------------------------------------------------|
E|0-0---0-0---0-0---0-2-0----------------------------------------|x6

(0:33 - 0:44, perform the reversed slide at the end of the verse)

G|---------------------------------------------------------------|
D|---------------------------------------------------------------|
A|---------------------------------------------------------------|
E|0-0-0-0-0-0-0-0-0-0-0-0-12s3-----------------------------------|

(0:44 - 1:08, perform the reversed slide right at the end)

G|---------------------------------------------------------------|
D|---------------------------------------------------------------|
A|---------------------------------------------------------------|
E|-5-3-2-1-2-1---5-3-2-1-2-1-2-3-2-1-2-1-2---12s3----------------|

(1:08 - 1:29)

G|---------------------------------------------------------------|
D|---------------------------------------------------------------|
A|---------------------------------------------------------------|
E|-5-3-2-1-2-1-2-3-2-1-2-1-2-------------------------------------|x4

(1:39 - 1:50, perform the reversed slide at the end of the verse)

G|---------------------------------------------------------------|
D|---------------------------------------------------------------|
A|---------------------------------------------------------------|
E|0--0--0--0--0--0--0--0--0--0--0--0--0-------12s3---------------|

(1:51 - 2:36, perform the reversed slide right at the end)

G|---------------------------------------------------------------|
D|---------------------------------------------------------------|
A|---------------------------------------------------------------|
E|-5-3-2-1-2-1-------5-3-2-1-2-1-2-3-2-1-2-1-2---12s3------------|

(2:36 - 2:48, repeat first part 4 times then perform the reversed slide at the end of the verse)

G|---------------------------------------------------------------|
D|---------------------------------------------------------------|
A|---------------------------------------------------------------|
E|0-0---0-0---0-0---0-2-0------------12s3------------------------|

(3:02 - 3:13)


G|---------------------------------------------------------------|
D|---------------------------------------------------------------|
A|---------------------------------------------------------------|
E|0---0---0---0---0--0--0--0--0--0--0--0--0-0-0-0-0-0-0-0-0------|(Speeds up always with the drums)

(3:13 - 3:45)

G|---------------------------------------------------------------|
D|---------------------------------------------------------------|
A|---------------------------------------------------------------|
E|-5-3-2-1-2-1-2-3-2-1-2-1-2-------------------------------------|x3

(3:45 - 3:57)

G|---------------------------------------------------------------|
D|---------------------------------------------------------------|
A|---------------------------------------------------------------|
E|-5-3-2-1-2-1-2-3-2-1-2-1-2----12s3-----------------------------|

Comment this song and these bass tabs

Do you have corrections, comments on the bass tabs, thoughts about the song or a message to the author? Write them below.