Guitar Tabs Explorer
Korn guitar tabs for Korn got the life

Korn Got The Life tab


Be the first to rate

Korn Got The Life tab by Korn

Guitar tabs

Print
Title: Got The Life
Album: Follow The Leader


Intro:

---------------------7/8-8---------------------|
-5-5-5-5-5-5-3-3-6-6-------5-5-5-5-3-3-3-6-6-6-|
-----------------------------------------------|
-----------------------------------------------|
-----------------------------------------------|
-----------------------------------------------|
   A5 chord diagramA5A5        G5 chord diagramG5G5  A#5 chord diagramA#5A#5       A5 chord diagramA5A5      G5 chord diagramG5G5    A#5 chord diagramA#5A#5                             =
    =20



	|-5-|
	|-5-|
	|-5-| Play this "chord" when intro finishes, in the beginning of the =
verse.
	|-5-| (It=B4s something like this. Create your own chord.)
	|-5-|
	|-5-|

                      =20
                       =20
Verse:

Just bass is played. (Guitars just play a little riff. I didn=B4t tab =
it.)


Chorus:

Same as Intro.                              =20


Outro:

-7/8-8-----------7/8-8-----------7/8-8---------7/8-8-----------|
-------5-5-5-5-5-------5-5-5-5-5-------5-5-5-5-------5-5-5-5-5-|
---------------------------------------------------------------|
---------------------------------------------------------------|
---------------------------------------------------------------|
---------------------------------------------------------------|
 ... play this until the end.                                            =

Comment this song and these guitar tabs

Do you have corrections, comments on the guitar tabs, thoughts about the song or a message to the author? Write them below.