Guitar Tabs Explorer
Korn guitar tabs for Fake

Fake tab


Be the first to rate

Fake tab by Korn

Guitar tabs with lyrics

Print

Fake-Korn
Transcribed by James Albers

Riff 1  			    Fill 1
B||----------------------------||-----------||
B||----2-3/4-2-3-3-2-3-3-2-----||----2-3----||
B||--0-0-1/2-0-1-1-0-1-1-0--0--||--0-0-1/2--||

Rif2a          Fill2    Riff2b    |..........   |..last..
d||----------|-------||-----------------------||--------||
a||----------|-------||-----------------------||--------||
F|| chord diagramF||F||----------|-------||--11--9----11--9-------||--11----||
C|| chord diagramC||C||----------|-------||-----------------9-----||-----9--||
B||----------|-------||-----------------------||--------||

Riff 3
F|| chord diagramF||F||-------------------------------------------||
C|| chord diagramC||C||-------- ^: Bend up half a step -----------||
B||-------------------------------------------||
B||-----13----14----13^------13----14---------||
B||--00----00----00-------00----00----00-12\--||

Fill 3    Riff 4
F|| chord diagramF||F||------||---------------------------||
C|| chord diagramC||C||--15--||---------------------------||  2nd time note is by the bass
B||--14--||--------------------14-----||  --open A chord diagramAA
B||--13--||-----------------12----12--||
B||--12--||--12----------13-----------||

Volume swells during Riff 4
d||---------------------------||
a||---------------------------||  Played during "...Be yourself let you
F|| chord diagramF||F||--<<11---------------------||  come through..."
C|| chord diagramC||C||--------------<<9----------||
B||---------------------------||

Fill 4
d||----------------------||
a||--- w/ tremolo bar ---||  Play with Fill 3
F|| chord diagramF||F||----------------------||  "Fake!"
C|| chord diagramC||C||---9------------(9)\--||
B||----------------------||

End Riff
F|| chord diagramF||F||----------------------------||
C|| chord diagramC||C||------ x : brief rest ------||
B||----------------------------||
B||------2-3/4-2-33-2x-33x2----||
B||--0-0-0-1/2-0-11-0x-11x0----||

-----------------------------------------------------------------------------
------------------------------------------------------------------------------
This song can be played on a "baritone" guitar (ADGCea)--
I'm not certain about Riff 4, if it has any arpegio on the 12 note after
the "Look at you, all I see..." part. I figured that since it doesn't
have it during the "Be yourself let you come through..." part, that the
first wouldn't either.
Listen to the album for the last riff-it's hard to show rests on the
computer.
The (let it/ever) thing is cuz he does both of them, the "And we with at
you, we with it" part I got from another guy, Daniel Christal, who
transcribed all the lyrics for the album. I don't want to advertise his
email address without his consent, so email me if you want the whole lyrics.

Laters--
James
<jalbers@ucsd.edu

Comment this song and these guitar tabs

Do you have corrections, comments on the guitar tabs, thoughts about the song or a message to the author? Write them below.