Guitar Tabs Explorer
Korn guitar tabs for Did my time1

Did My Time1 tab


Be the first to rate

Did My Time1 tab by Korn

Guitar tabs

Print
Album: Greatest Hits vol.1


this is a very easy song to learn on guitar this is the
right way to play it cause i watched the dvd for greatest hits vol.1
and watched them to see what they were playing.


played 16 times on the intro. then just four times after
(intro 1)
|------------------------------|
|------------------------------|
|------------------------------|Guitar 1
|-0h22---0h22---0h22---0h22----|
|------------------------------|
|------------------------------|


played 4 times then the inrto 1 played then this again
(intro 2)
|---------------------------------|
|---------------------------------|
|---------------------------------|Guitar 2
|-0h33---0h33---0h33---0h33-------|
|-0h33---0h33---0h33---0h33-------|
|-0h33---0h33---0h33---0h33-------|


after guitar1 playes this onces guitar2 comes in louder
and they both play the Choruses.
(Chorus)
|------------------------------|
|------------------------------|
|-222--------------------------|Guitar 1
|----222-----------------------|
|-------333-000-2222-----------|
|------------------------------|


(Verse)
|------------------------------|
|------------------------------|
|------------------------------|Guitar 2
|-2h44--3h55--2h44--3h55-------|
|-2h44--3h55--2h44--3h55-------|
|-2-----3-----2-----3----------|



(bridge)
|----------------------------------|
|----------------------------------|
|----------------------------------|Guitar 1
|----------------------------3-----|
|---1-0----1-0----1-0----1-0-------|
|-3------3------3------3-----------|


any comments or if i did something wrong.
power-slide@hotmail.com

Other versions of Did My Time1

Did my timeTabs

Comment this song and these guitar tabs

Do you have corrections, comments on the guitar tabs, thoughts about the song or a message to the author? Write them below.