Guitar Tabs Explorer
Korn bass tabs for Coming undone

Coming Undone bass tab


Be the first to rate

Coming Undone bass tab by Korn

Bass tabs

Print

Intro:
G-------------------------------------------------------------------------------
D-------------------------------------------------------------------------------
A-------------------------------------------------------------------------------
B--22-2--22-2--22-2--22-2--22-2-------------------------------------------------

Verse:
G-------------------------------------------------------------------------------
D-------------------------------------------------------------------------------
A-------------------------------------------------------------------------------
B--22-2--22-2--22-2--22-2--22-2--22-2--22-2--22-2--22-2--22-2---------------(x2)

Pre Chorus
G-------------------------------------------------------------------------------
D-------------------------------------------------------------------------------
A-------------------------------------------------------------------------------
B--07-05-03-3h2~------------------------------------------------------------(x3)

Chorus
G-------------------------------------------------------------------------------
D-------------------------------------------------------------------------------
A-------------------------------------------------------------------------------
B--0020-5432--0020-5432--0020-5432----0020-5432-----------------------------(x2)

Verse(x2)
Pre Chorus
Chorus(x2)

Bridge#1:
G-------------------------------------------------------------------------------
D-------------------------------------------------------------------------------
A-------------------------------------------------------------------------------
B--0----23-55-77------------------------------------------------------------(x3)

Bridge#2
G-------------------------------------------------------------------------------
D-------------------------------------------------------------------------------
A-------------------------------------------------------------------------------
B--00-22-7~---543-----------------------------------------------------------(x3)

Chorus(x2)

Outro
G-------------------------------------------------------------------------------
D-------------------------------------------------------------------------------
A-------------------------------------------------------------------------------
B--2-3-2-3-2-3-2-3--------------------------------------------------------------

Comment this song and these bass tabs

Do you have corrections, comments on the bass tabs, thoughts about the song or a message to the author? Write them below.