Guitar Tabs Explorer
Korn guitar tabs for Blind (Ver. 2)

Blind tab


Be the first to rate

Blind tab by Korn (Ver. 2)

Guitar tabs

Print

Tuning: Standard (E chord diagramEE A chord diagramAA D chord diagramDD G chord diagramGG B chord diagramBB E chord diagramEE)

Difficulty: Novice

Intro:(0:05-0:40)

e|0-0-0-0|
B|3-3-3-3|
G|1-1-1-1|    RHYTHEM= 1 and two and / down up, down up
D|-------|
A|-------|
D|-------|

(0:30-0:40)
REPETE TILL-->          (0:40-0:50)

e|--------0-0-0-0|    e|----------------0-0-0-0|
B|--------3-3-3-3|    B|----------------3-3-3-3|
G|--------1-1-1-1|    G|----------------1-1-1-1|
D|---------------|    D|----------------X-X-X-X|
A|---------------|    A|----------------X-X-X-X|
D|0-2-3----------|    D|0-2-0-3-0-2-0-3-X-X-X-X|

{AREEEEE YOUUUU READYYYYYY} (0:50-1:22)
e|-------------------------|
B|-------------------------|
G|-------------------------|
D|-------------------------|
A|-------------------------|
D|0-2-0-3-0-2-0-3--6-6-6-6-|

(1:22-1:44)

e|------------------|
B|------------------|
G|------------------|
D|0----1~~~~~~~~----|
A|------------------|
D|------------------|


{bliiiindddd bliiiiiiinnd} (1:44-1:55)
e|---------------------------------------------------------------------------------|
B|---------------------------------------------------------------------------------|
G|---------------------------------------------------------------------------------|
D|---------------------------------------------------------------------------------|
A|---7---7/8\7---7/8-8---7/8\7---7/8-8---7/8\7---7/8-8---7/8\7---7/8-10~~~~--------|
B||--7---7/8\7---7/8-6---7/8\7---7/8-6---7/8\7---7/8-6---7/8\7---7/8-10~~~~--------|


(1:55-2:17)

e|------------------|
B|------------------|
G|------------------|
D|0----1~~~~~~~~----|
A|------------------|
D|------------------|


{bliiiindddd bliiiiiiinnd} (2:17-2:27)
e|---------------------------------------------------------------------------------|
B|---------------------------------------------------------------------------------|
G|---------------------------------------------------------------------------------|
D|---------------------------------------------------------------------------------|
A|---7---7/8\7---7/8-8---7/8\7---7/8-8---7/8\7---7/8-8---7/8\7---7/8-10~~~~--------|
B||--7---7/8\7---7/8-6---7/8\7---7/8-6---7/8\7---7/8-6---7/8\7---7/8-10~~~~--------|

(2:27-2:50)
e|-------------------------|
B|-------------------------|
G|-------------------------|    ON THE LAST TIME PLAYING THIS HOLD THE LAST NOTE
D|-------------------------|
A|-------------------------|
D|0-2-0-3-0-2-0-3--6-6-6-6-|


(2:50-3:09)

e|0-0-0-0-0******-0-0-0-0-X|
B|3-3-3-3-0******-3-3-3-3-X|
G|1-1-1-1-0******-1-1-1-1-X|
D|--------0******---------X|
A|--------0******---------X|
D|--------0******---------X|

I CANT SEE I CANT SEE IM GOING BLINDDDD (3:10-3:30)
e|----------------------------------------------------------------|
B|----------------------------------------------------------------|
G|----------------------------------------------------------------|
D|0-0-0-0-0-0-0-0-3-3-3-3-3-3-3-3-0-0-0-0-0-0-0-0-1-1-1-1-1-1-1-1-|
A|0-0-0-0-0-0-0-0-3-3-3-3-3-3-3-3-0-0-0-0-0-0-0-0-1-1-1-1-1-1-1-1-|
D|0-0-0-0-0-0-0-0-3-3-3-3-3-3-3-3-0-0-0-0-0-0-0-0-1-1-1-1-1-1-1-1-|


(3:30-3:52)
e|----------------------------=-------------0-0-0-0|
B|------------------------------------------3-3-3-3|
G|------------------------------------------1-1-1-1|
D|------------------------------------------X-X-X-X|
A|------------------------------------------X-X-X-X|
D|0-2-0-3-0-2-0-3--6-6-6-6--0-2-0-3-0-2-0-3-X-X-X-X|


Outro: (3:52-END)
e|---------------------|
B|---------------------|
G|---------------------|
D|---------------------|
A|---------------------|
D|0-6-0-0-8-0-0-6-0-0-8|




~-vibrato
*-let ring
X-palm mute/stop the note playing

Other versions of Blind

- BlindTabs
- Blind1Tabs

Comment this song and these guitar tabs

Do you have corrections, comments on the guitar tabs, thoughts about the song or a message to the author? Write them below.