Search tabs and chords

Search for song, artist or band

Log in

One click and you are in

Login with Facebook Login with Google

Why sign up and log in

Guitar Tabs Explorer
Korn guitar tabs for Black is the soul

Guitar tabs

Intro 1:
E|-------------------------------------------------------------------------------|
B|------------------------------------ (A chord diagramAA PEDAL IS USED IN THIS PART)------------|
G|----------------------------- ----------CHECK THE VID TRACK BY TRACK OF KORN---|
D|----------9---------------9--10------------------------------------------------|
A|----------X----(X3)-------X--X-------------------------------------------------|
E|----------7---------------7--8---------4 times the whole part------------------|
A|--000-----------------0--------------------------------------------------------|

Intro 2:
E|-------------------------------------------------------------------------------------------------------|
B|-------------------------------------------------------------------------------------------------------|
G|-------------------------------------------------------------------------------------------------------|
D|----------------------------------------------------2  (x3)----23--------------------------------------|
A|------7 (x3)-----78----------7--(x3)----78---------------------------------2 (x3)-----32---------------|
E|-------------------------------------------------------------------------------------------------------|
A|-888----------8----------555-------- 5---------333----------3--------000-----------0-------------------|

Verse:
PT1, same as intro 1
E|-------------------------------------------------------------------------------|
B|-------------------------------------------------------------------------------|
G|-------------------------------------------------------------------------------|
D|----------9---------------9--10------------------------------------------------|
A|----------X----(X3)-------X--X-------------------------------------------------|
E|----------7---------------7--8-------------------------------------------------|
A|--000-----------------0--------------------------------------------------------|

PT2
E|---------------------------------------------------------------------------|
B|---------------------------------------------------------------------------|
G|---------------------------------------------------------------------------|
D|--9 7------7 10 7------7 9 7 7------(x3)  9 7----7 10 7----7 9 5 vibrato---|
A|---------------------------------------------------------------------------|
E|---------------------------------------------------------------------------|
A|---------------------------------------------------------------------------|

Chorus:
same as intro pt 2
E|-------------------------------------------------------------------------------------------------------|
B|-------------------------------------------------------------------------------------------------------|
G|-------------------------------------------------------------------------------------------------------|
D|----------------------------------------------------2  (x3)----23--------------------------------------|
A|------7 (x3)-----78----------7--(x3)----78--------------------------------- (x3)-----------------------|
E|--------------------------------------------------------------------------7-----------87---------------|
A|-888----------8----------555-------- 5---------333----------3--------000-----------0-------------------|

Chorus:
E|-------------------------------------------------------------------------------------------------------|
B|-------------------------------------------------------------------------------------------------------|
G|-------------------------------------------------------------------------------------------------------|
D|----------------------------------------------------2  (x3)----23--------------------------------------|
A|------7 (x3)-----78----------7--(x3)----78--------------------------------- (x3)-----------------------|
E|--------------------------------------------------------------------------7-----------87---------------|
A|-888----------8----------555-------- 5---------333----------3--------000-----------0-------------------|

Verse:
PT1, same as intro 1
E|-------------------------------------------------------------------------------|
B|-------------------------------------------------------------------------------|
G|-------------------------------------------------------------------------------|
D|----------9---------------9--10------------------------------------------------|
A|----------X----(X3)-------X--X-------------------------------------------------|
E|----------7---------------7--8-------------------------------------------------|
A|--000-----------------0--------------------------------------------------------|

PT2
E|---------------------------------------------------------------------------|
B|---------------------------------------------------------------------------|
G|---------------------------------------------------------------------------|
D|--9 7------7 10 7------7 9 7 7------(x3)  9 7----7 10 7----7 9 5 vibrato---|
A|---------------------------------------------------------------------------|
E|---------------------------------------------------------------------------|
A|---------------------------------------------------------------------------|

Chorus:
same as intro pt 2
E|-------------------------------------------------------------------------------------------------------|
B|-------------------------------------------------------------------------------------------------------|
G|-------------------------------------------------------------------------------------------------------|
D|----------------------------------------------------2  (x3)----23--------------------------------------|
A|------7 (x3)-----78----------7--(x3)----78--------------------------------- (x3)-----------------------|
E|--------------------------------------------------------------------------7-----------87---------------|
A|-888----------8----------555-------- 5---------333----------3--------000-----------0-------------------|

Chorus:
E|-------------------------------------------------------------------------------------------------------|
B|-------------------------------------------------------------------------------------------------------|
G|-------------------------------------------------------------------------------------------------------|
D|----------------------------------------------------2  (x3)----23--------------------------------------|
A|------7 (x3)-----78----------7--(x3)----78--------------------------------- (x3)-----------------------|
E|--------------------------------------------------------------------------7-----------87---------------|
A|-888----------8----------555-------- 5---------333----------3--------000-----------0-------------------|

Bridge:
E|---------------------------------------------------------------------------|
B|---------------------------------------------------------------------------|
G|-------------------WITH WHAMMY BAR---------------------REPEAT AS NEEDED----|
D|------7 / \ (7)--------------------7 / \ (7)-------------------------------|
A|---------------------------------------------------------------------------|
E|---------------------------------------------------------------------------|
A|------------------0 000-----000--------------------------------------------|

E|--------------------------------------------------------------------------------|
B|--------------------------------------------------------------------------------|
G|--------------------------------------------------------------------------------|
D|------7 / \ (7) ------7/-0--------7 / \ (7)-------------------REPEAT------------|
A|----------------------6/-0--------------------------------------AS--------------|
E|----------------------5/-0-------------------------------------NEEDED-----------|
A|-----------------00--------000--------------------------------------------------|

Chorus: x2
E|---------------------------------------------------|
B|---------------------------------------------------|
G|---------------------------------------------------|
D|-----2------------23-------------------------------|
A|----------(X3)-------------------------------------|
E|------------------------------7------------87------|
A|-333-----------3---------000-------(X3) 0----------|

Outro:
E|-------------------------------------------------------------------------------|
B|-------------------------------------------------------------------------------|
G|-------------------------------------------------------------------------------|
D|----------9---------------9--10------------------------------------------------|
A|----------X----(X3)-------X--X-------------------------------------------------|
E|----------7---------------7--8-------------------------------------------------|
A|--000-----------------0--------------------------------------------------------|

Black Is The Soul tab

Korn guitar tabs for Black is the soul "Black Is the Soul" is a track off of nu metal rockers Korn's 2016 album "The Serenity of Suffering". "Black Is the Soul" is written by Korn. Guitars are played by James "Munky" Shaffer and Brian "Head" Welch.

Almost there ...

Sign in to get your own page with links to favourite songs and more. You are just one click away...

Login with Facebook Login with Google