Search tabs and chords

Search for song, artist or band

Log in

One click and you are in

Login with Facebook Login with Google

Why sign up and log in

Guitar Tabs Explorer
Kiss guitar tabs for Take me down below

Guitar tabs

Difficulty: Advanced

Take Me Down Below By KISS ( MONSTER ALBUM 2012 )


Intro(x1)       Lick 1 (x3)               Lick 2 (x1)
e|-------|----------------------------|  e|---------|
B|-------|----------------------------|  B|---------|
G|---(9)-|----------------------------|  G|-----(9)-|
D|---(9)-|---------------------9------|  D|-----(9)-|
A|---(7)-|-----------5-7-5-7-7-7------|  A|-----(7)-|
E|-------|-0-0-0-0-0-3-5-3-5-5--------|  E|---------|

                Lick 1 (x3)               Lick 3(x1)
e|------------------------------------|  e|---------|
B|------------------------------------|  B|---------|
G|------------------------------------|  G|-----(5)-|
D|------------------------9-----------|  D|-----(5)-|
A|--------------5-7-5-7-7-7-----------|  A|-----(7)-|
E|----0-0-0-0-0-3-5-3-5-5-------------|  E|---------|

                Lick 1 (x3)               Lick 4 (x1)
e|------------------------------------|  e|-----------|
B|------------------------------------|  B|-----------|
G|------------------------------------|  G|-----------|
D|-----------------------------9------|  D|-99999-----|
A|-------------------5-7-5-7-7-7------|  A|-99999-----|
E|---------0-0-0-0-0-3-5-3-5-5--------|  E|-77777-----|

Lick 5 (x2)     Lick 6 (x1)                Lick7(x1)
e|-----------|------------------------|  e|---------|
B|-----------|------------------------|  B|---------|
G|-----------|------------------------|  G|---------|
D|-------5555|-5555-------------------|  D|-5---5---|
A|-5555--7777|-3333-5555--------------|  A|-3-5-7---|
E|-3333------|------3333--------------|  E|---3-----|
                                       Take Me Down Below!!

                Lick 1 (x3)               Lick 2(x1)
e|------------------------------------|  e|---------|
B|------------------------------------|  B|---------|
G|------------------------------------|  G|-----(9)-|
D|------------------------9-----------|  D|-----(9)-|
A|--------------5-7-5-7-7-7-----------|  A|-----(7)-|
E|----0-0-0-0-0-3-5-3-5-5-------------|  E|---------|

                Lick 1 (x3)               Lick 4 (x1)
e|------------------------------------|  e|-----------|
B|------------------------------------|  B|-----------|
G|------------------------------------|  G|-----------|
D|-----------------------------9------|  D|-99999-----|
A|-------------------5-7-5-7-7-7------|  A|-99999-----|
E|---------0-0-0-0-0-3-5-3-5-5--------|  E|-77777-----|

Lick 5 (x2)     Lick 6 (x1)                Lick7(x1)
e|-----------|------------------------|  e|---------|
B|-----------|------------------------|  B|---------|
G|-----------|------------------------|  G|---------|
D|-------5555|-5555-------------------|  D|-5---5---|
A|-5555--7777|-3333-5555--------------|  A|-3-5-7---|
E|-3333------|------3333--------------|  E|---3-----|
                                       Take Me Down Below!!
Lick 8 (x2)
e|-------------------------------------------|
B|-------------------------------------------|
G|---------------------------------------5-5-|
D|---------------------3-----------------5-5-|
A|---------------5-3-5-------------------5-5-|
E|-5-345-345-345-----------5-345-345-345-----|

Lick 9 (x1)
e|------------------------------------------|
B|------------------------------------------|
G|--------------------------------------5-5-|
D|---------------------5----------------5-5-|
A|---------------7-5-7------------------5-5-|
E|-7-567-567-567----------7-567-567-567-----|

Lick 10 (x1)
e|------------------------------------------|
B|------------------------------------------|
G|-------------------------------------7-(7)|
D|---------------------5---------------7-(7)|
A|---------------7-5-7-----------------7-(7)|
E|-7-567-567-567---------7-567-567-567------|

                Lick 1 (x3)               Lick 4 (x1)
e|------------------------------------|  e|-----------|
B|------------------------------------|  B|-----------|
G|------------------------------------|  G|-----------|
D|-----------------------------9------|  D|-99999-----|
A|-------------------5-7-5-7-7-7------|  A|-99999-----|
E|---------0-0-0-0-0-3-5-3-5-5--------|  E|-77777-----|

Lick 5 (x2)     Lick 6 (x1)                Lick7(x1)
e|-----------|------------------------|  e|-----------|
B|-----------|------------------------|  B|-----------|
G|-----------|------------------------|  G|-----------|
D|-------5555|-5555-------------------|  D|-5---5555--|
A|-5555--7777|-3333-5555--------------|  A|-3-5-7777--|
E|-3333------|------3333--------------|  E|---3-------|
                                       Take Me Down Below!!
Lick 5 (x4)
e|----------|---------------|
B|----------|---------------|
G|----------|---------------|
D|------5555|-(5)-------(5)-|
A|-5555-7777|-(3)--(5)--(7)-|
E|-3333-----|------(3)------|
  (Outro)           Take Me Down Below!!!

Almost there ...

Sign in to get your own page with links to favourite songs and more. You are just one click away...

Login with Facebook Login with Google