Search tabs and chords

Search for song, artist or band

Log in

One click and you are in

Login with Facebook Login with Google

Why sign up and log in

Guitar Tabs Explorer
Kiss guitar tabs for Rock and roll all night

Guitar tabs with lyrics

Solo included

Intro           Riff1/Verse (you play it 2 times
without singing
after the intro and then you start
like i write
here and you continue until Riff2)
|---4-4-4-4-4-4-4---|----------------------------------
|---7-7-6-7-7-6-6---|----------------------------------
|---6-6-6-6-6-6-6---|----------------------------------
|---6-6-6-6-6-6-6---|--4-4-4-4---4-4-4-4-4-4-----------
|---4-4-4-4-4-4-4---|--6-6-6-6---6-6-6-6-6-6-----------
|---4-4-4-4-4-4-4---|--4-4-7-4---6-6-7-6-7-6-----------
you show us everything...
Riff2
|------------------------------------------------------
|------------------------------------------------------
|--6-6-8-6-6-6------8-8-10-8--8-8----------------------
|--6-6-6-6-8-6------8-8--8-8-10-8----------------------
|--4-4-4-4-4-4------6-6--6-6--6-6----------------------
|------------------------------------------------------

you drive us wild, we'll drive you
|---4-4-4-4-4-4-4--------------------------------------
|---7-7-6-7-7-6-6--------------------------------------
|---6-6-6-6-6-6-6--------------------------------------
|---6-6-6-6-6-6-6--------------------------------------
|---4-4-4-4-4-4-4--------------------------------------
|---4-4-4-4-4-4-4--------------------------------------

Crazy!!

Riff 3
|------------------------------------------------------
|---------------------------------8--------------------
|----4-4-6-4-6-4----6-6-8-6-8-6-6-6--------------------
|----2-2-2-2-2-2----4-4-4-4-4-4-4-4--------------------
|------------------------------------------------------
|------------------------------------------------------

you keep on...

Chorus
G# chord diagramG#G#
|---------4-------------------------------------------|
|---------4-------------------------------------------|
|---------5--------------6-6-8-6-8--8-8-10-8-10-------|
|---------6--------------6-6-8-6-8--8-8-10-8-10-------|
|--15/----6--------------4-4-4-4-4--6-6--6-6--6-------|
|---------4-------------------------------------------|
I     wanna rock & roll all n  i  te  and party...


*The second verse you play the same like the first and
the comes
solo


Solo
|-----------------------------------------------------------------|
|-----------------------------------------------------------------|
|--4h6h8-8-8--4h6h8-8--4h6h8-8-8--4h6h8-8--4h6h8-8-8--4h6h8-8-----|
|-----------------------------------------------------------------|
|-----------------------------------------------------------------|
|-----------------------------------------------------------------|

(This is really the blues scale
with a little
variations)
|-----------------------7-----------------------------------------|
|------------------------10-7-------------------------------------|
|--4h6h8-8-8--4h6h8-8--------10-9-7--------------8p7-5--8p7-5-----|
|----------------------------------9-7----------------------------|
|-------------------------------------9-8-8-7---------------------|
|-----------------------------------------------------------------|


|-----------------------------4-4-4-4-4-4-4-----------------------|
|-----------------------------7-7-6-7-7-6-6-----------------------|
|-8p7-5--8p7-5--8-7-5-0-------6-6-6-6-6-6-6---4h6h8-8-8--4h6h8-8-8|
|-----------------------7-----6-6-6-6-6-6-6-----------------------|
|-----------------------------4-4-4-4-4-4-4-----------------------|
|-----------------------------4-4-4-4-4-4-4-----------------------|


(Be careful this
is not a
scale so you
have to play it
not so fast)

|----------------------------------------7-7----------------------|
|--------------------------------------------9-6----------6-------|
|-4h6h8-8-8--4h6h8-8-8--4-8--4--8--4-8-----------9-6--6-9---9-6---|
|--------------------------------------------------------------9-8|
|-----------------------------------------------------------------|
|-----------------------------------------------------------------|


(in the umplugged
just do this)
|--5-7-5-7-5--7-5-------|--5-7-5-7-5--7-5---|--4-4-4-4-4-4-4------|
|--5-7-5-7-5--7-5-7-----|-----------------7-|--7-7-6-7-7-6-6------|
|--5-7-5-7-5--7-5-7-----|-------------------|--6-6-6-6-6-6-6------|
|-----------------7-----|-------------------|--6-6-6-6-6-6-6------|
|-----------------------|-------------------|--4-4-4-4-4-4-4------|
|-----------------------|-------------------|--4-4-4-4-4-4-4------|
Chorus like 5 times again

Cool end
|-----------------------------------------------------------------|
|---------------------------7b--5-7-5-----------------------------|
|--5-5-7-5-7-5--7-7-9-7-----7b--5-7-5-7-5-7-5-1-2~~---------------|
|--3-3-3-3-3-3--5-5-5-5---------------7-5-7-5-1-2~~---------------|
|-----------------------------------------------------------------|
|-----------------------------------------------------------------|

Other versions of Rock And Roll All Night

Rock and roll all nightChords

Almost there ...

Sign in to get your own page with links to favourite songs and more. You are just one click away...

Login with Facebook Login with Google