Guitar Tabs Explorer
Kiss guitar tabs for Love gun

Love Gun tab


3.8 / 5 [4 votes]

Love Gun tab by Kiss

Guitar tabs

Print
"Love Gun" by Kiss
from the album, Love Gun

transcribed by Rob Schenk

tune down 1/2 step


intro (play 2 times)
---------------------------------------------------------
---------------------------------------------------------
-9-9-9-9------9-9-9-9------9-9-9-9-9-9-9-9-9-9-----------
-9-9-9-9------9-9-9-9------9-9-9-9-9-9-9-9-9-9-----------
-7-7-7-7------7-7-7-7------7-7-7-7-7-7-7-7-7-7-----------
---------------------------------------------------------

main riff (/ means slide to)
---------------------------------------------------------
---------------------------/12-------------------------------/12-------
-9----12-14-12-7-5---/12-7-9----12-14-12-7-5----/12-7-9---
-9----12-14-12-7-5---/12-7-9----12-14-12-7-5----/12-7-9---
-7----10-12-10-5-3---------5-7----10-12-10-5-3----------5-7---
---------------------------------------------------------


lyrics start... I really love ...

----------------------------------------------------------
--/12-----------/12----------------------------------------
--/12-7-9------/12-----5----7----9--------------------------
--/12-7-9------/12-5--5----7----9--------------------------
--------5-7------------5--3----5----7--------------------------
-------------------------3--------------------------------------


second verse.... No more tomorrows ...

---7-------------------------------------------------------
---8------/12---------/12-----------------------------------
---9------/12-7-9----/12----5----7----9---------------------
---9------/12-7-9----/12-5-5----7----9---------------------
---7------------5-7----------5-3----5----7---------------------
-------------------------------3---------------------------------


third vocal section... No place for ....

----------------------------------------------------------
---------------------------------------------------------
--2-----7-----9------2------7------9---------------------------
--2-----7-----9------2------7------9---------------------------
--0-----5-----7------0------5------7--------------------------
-------------------------------------------------------

chorus:  repeat intro and then main riff
You pull the ....Love gun, love gun

repeat 1st, 2nd, 3rd verse and then chorus again.

Other versions of Love Gun

Love gunChords
Love gun acousticChords
Love gun (Ver. 2)Tabs

Comment this song and these guitar tabs

Do you have corrections, comments on the guitar tabs, thoughts about the song or a message to the author? Write them below.