Guitar Tabs Explorer
Kiss bass tabs for Lick it up

Lick It Up bass tab


4.5 / 5 [2 votes]

Lick It Up bass tab by Kiss

Bass tabs

Print

Tuning: Standard tuning


Submitted by: Higo

Key:
/    = slide up
    = slide down
b    = bend (whole step)
b^   = bend (1/2 step)
b^^  = bend (1 1/2 steps)
pb   = pre-bend
r    = release-bend
t    = tap with righthand finger
h    = hammer-on
p    = pull-off
~    = Vibrato
*    = Natural Harmonic
) = Trill
**   = Artificial Harmonic
x    = Dead notes (no pitch)
P.M. = Palm mute (- -> underneath indicates which notes)
()  = Dive wbar
(/)  = Release wbar
Tp   = Tap wplectrum


Rhythm Fig. 1

G|----------------------------------------------------|
D|----------------------------------------------------|
A|--0--0--0--0--0--0--0--0----------------------------|
E|----------------------------------------------------|


Rhythm Fig. 2a

G|----------------------------------------------------|
D|----------------------------------------------------|
A|--0--0--0--0--0--0--0--0--0--0--0--0--0--0----------|
E|--------------------------------------------3--0----|


G|----------------------------------------------------|
D|----------------------------------------------------|
A|---------------------------------------12-----------|
E|--1--1--1----1----1----3--3--3--3-------------------|


Rhythm Fig. 2b

G|----------------------------------------------------|
D|----------------------------------------------------|
A|--0--0--0--0--0--0--0--0--0--0--0--0--0--0--0-------|
E|-----------------------------------------------0----|


G|----------------------------------------------------|
D|----------------------------------------------------|
A|---------------------------------------12-----------|
E|--1----1----1----1-----3--3--3--3-------------------|


Rhythm Fig. 3

G|----------------------------------------------------|
D|----------------------------------------------------|
A|--0--0--0--0--0--0--0--0-------------5----5---------|
E|---------------------------3----3-------------------|


  End 1                      End 2
G|--------------------------|-------------------------|
D|--------------------------|-------------------------|
A|--0--0--0--0--0--0--0--0--|--0------------12--------|
E|--------------------------|-------------------------|


  End 3                      End 4
G|--------------------------|-------------------------|
D|--------------------------|-------------------------|
A|--0--0--0--0--0--0--------|--0--0--0--0--0--0-------|
E|--------------------2--3--|--------------------0--x-|

  End 5
G|--------------------------|-------------------------|
D|--------------------------|-------------------------|
A|--0--0--0--0--0-----------|-------------------------|
E|-----------------0--2--3--|-------------------------|

Rhythm Fig. 4

G|----------------------------------------------------|
D|----------------------------------------------------|
A|-------------------------0--0--0--0--0--0--0--0-----|
E|--2---3---3--2---3---3------------------------------|

Rhythm Fig. 5

G|----------------------------------------------------|
D|----------------------------------------------------|
A|--0--0--0--0--0--0--0-/7----------------------------|
E|---------------------------0--------0---------------|


G|----------------------------------------------------|
D|----------------------------------------------------|
A|-------5h7--------5h7----------7--7--7--7--7--7-----|
E|--0----------0-----------0--0-----------------------|


G|----------------------------------------------------|
D|----------------------------------------------------|
A|--7--7--7--7--7----12-------------------------------|
E|----------------------------------------------------|

Riff 1

G|----------------------------------------------------|
D|----------------------------------------------------|
A|--12------------------------------------------------|
E|----------------------------------------------------|

Other versions of Lick It Up

- Lick it up (Ver. 2)Bass tabs

Comment this song and these bass tabs

Do you have corrections, comments on the bass tabs, thoughts about the song or a message to the author? Write them below.