Search tabs and chords

Search for song, artist or band

Log in

One click and you are in

Login with Facebook Login with Google

Why sign up and log in

Guitar Tabs Explorer
Kiss guitar tabs for Hell or hallelujah

Guitar tabs with lyrics

Riff:
Eb------------------------------------------------------------
Bb------------------------------------------------------------
Gb---5p4-0-2p0-----5-5-5h7~-----------------------------------
Db---5p4-0-2p0-----5-5-5h7~-----------------------------------
Ab-0-----------2p0--------------------------------------------
Eb------------------------------------------------------------
Riff 2:
Eb-------------------------------------------------------------
Bb-------------------------------------------------------------
Gb-------------------------------------------------------------
Db-------------------------------------------------------------
Ab-----3-5-----------------------------------------------------
Eb-3-5-----3-4-5~----------------------------------------------


Riff 3:
Eb-------------------------------------------------------------
Bb-------------------------------------------------------------
Gb-------------------------------------------------------------
Db---2--5-2---2-5-2--------------------------------------------
Ab-5-0--3-0-5-0-3-0--------------------------------------------
Eb-3--------3--------------------------------------------------


Solo 1:
Eb-15-----------------------------------------------------------
Bb-18b20~--13-15-13~--13----------------------------------------
Gb-----------------------14p12----12h14-------------------------
Db-----------------------------14--------12-10-12-10-12/14-10~--
Ab--------------------------------------------------------------
Eb--------------------------------------------------------------

Solo 2:
Eb-14b15~--------------------------------------------------------
Bb---------------------------------------------------------------
Gb---------------------------------------------------------------
Db--------14-13-12-10-12-12-12p10~-------------------------------
Ab----------------------------------12-10-12-12~-----------------
Eb---------------------------------------------------------------


Solo 3:
Eb----------------------------------------------------------------------
Bb----------------------------------------------------------------------
Gb-4p2p0-5p3p0-6p4p0-7p5p0-8p6p0-9p7p0-10p8p0-11p9p0-12p10p0-13p11p0----
Db----------------------------------------------------------------------
Ab----------------------------------------------------------------------
Eb----------------------------------------------------------------------


Solo 4:
Eb----------------------------------------------------------------------
Bb-15b17-13-15-13-------------------------------------------------------
Gb----------------14~---------------------------------------------------
Db----------------------------------------------------------------------
Ab----------------------------------------------------------------------
Eb----------------------------------------------------------------------


Solo 5:
Eb------5--------------------------------------------------------------
Bb-8b10---5-8----------------------------------------------------------
Gb------------7b9r7p5--------------------------------------------------
Db--------------------7-7~---------------------------------------------
Ab---------------------------------------------------------------------
Eb---------------------------------------------------------------------


Solo 6:
Eb--------------------------------------------------------------------
Bb-5p3p0-6p4p0-10p8p0-11p9p0-13p11p0-14p12p0-16p14p0-17p15p0----------
Gb------------------------------------------------------------14------
Db------------------------------------------------------------14------
Ab--------------------------------------------------------------------
Eb--------------------------------------------------------------------


Solo 7:
Eb-15------14------12------10-----------------------------------------
Bb-18b20~--17b19~--15b17~--13b15~-------------------------------------
Gb--------------------------------------------------------------------
Db--------------------------------------------------------------------
Ab--------------------------------------------------------------------
Eb--------------------------------------------------------------------


Intro 8x: (Riff)

Verse 1:
A chord diagramG MajorG
I rode the highway to heartache
           A chord diagramE5E5          A chord diagramC5C5     (Riff 2x)
I took a trip on the ship of fools, woah yeah!
A chord diagramG MajorG
And I paid the price to have my way
       A chord diagramC5C5    A chord diagramD5D5        (Riff 2x)
Cause money makes the rules, yeah!

Pre-Chorus:
        A chord diagramFF
Sing it!

Lay down!

I’m looking through ya

Stay down!
                        A chord diagramG MajorG
You got what you should

Pay now!
                    A chord diagramE5E5              A chord diagramC5C5  A chord diagramA5A5
All that you never would, it feels good!

Chorus:
(Riff 4x)
Hell or hallelujah!

No matter what you do, I’m running through ya

Yeah!

Verse 2:
 A chord diagramG MajorG
You said that love’s never lasting
       A chord diagramE5E5         A chord diagramC5C5        (Riff 2x) (Solo 1)
We surrender our hearts to lose, yeah!
 A chord diagramG MajorG
Time’s up there’s nobody asking
      A chord diagramC5C5     A chord diagramD5D5      (Riff 2x) (Solo 2)
This time I get to choose!

Pre-Chorus 2:
               A chord diagramFF
Let me hear ya!

Lay down!

Don’t say you’re sorry

Stay down!
                      A chord diagramG MajorG
I knew that you would

Pay now!
                           A chord diagramE5E5             A chord diagramC5C5  A chord diagramA5A5
Don’t say you’re misunderstood, it feels good

Chorus:
(Riff 8x)
Hell or hallelujah!

No matter what you do, I’m running through ya

One more time!

Hell or hallelujah!

C’mon c’mon

The rest is up to you

It’s overdue ya

Bridge:
Listen!
A chord diagramC5C5       A chord diagramD5D5        (Riff 2)
One heart  is breakin’
A chord diagramC5C5        A chord diagramD5D5       (Riff 3)
One chance  I’m takin’
 A chord diagramC5C5    A chord diagramD5D5      (Riff 2)
No lies, no fakin’
 A chord diagramC5C5     A chord diagramD5D5                A chord diagramE5E5   (Solo 3)
Goodbye,  feels like it should!
          A chord diagramC5C5  (Riff)
It feels good!


Solo Principal: (Riff 8x)

Eb---------15-------------------------15b17~-15-15b17~-15b17-15b17-15b17~------
Bb-15b17~--15b17-15-15b17-15b17r15-13------------------------------------------
Gb-----------------------------------------------------------------------------
Db-----------------------------------------------------------------------------
Ab-----------------------------------------------------------------------------
Eb-----------------------------------------------------------------------------

Eb-15b17r15b17-15b18~----------------------------------------------------------
Bb---------------------15h17p15h17p15--15/13-15p13-----------------------------
Gb--------------------------------------------------14p12h14p12----------------
Db-----------------------------------------------------------------------------
Ab-----------------------------------------------------------------------------
Eb-----------------------------------------------------------------------------

Eb-----------------------------------------------------------------------------
Bb----------------------------------------------15-11-15b17-13~----------------
Gb-------------------------------------12----12--------------------------------
Db-14p12/10-12b14-10----------12-13/15----14-----------------------------------
Ab----------------------12-15--------------------------------------------------
Eb-----------------------------------------------------------------------------


Eb-15-----15-----15-----15-----15------14-----14-----14-----14-----14-----------
Bb-18b20~-18b20~-18b20~-18b20~-18b20~--17b19~-17b19~-17b19~-17b19~-17b19~-------
Gb------------------------------------------------------------------------------
Db------------------------------------------------------------------------------
Ab------------------------------------------------------------------------------
Eb------------------------------------------------------------------------------

Eb-12-----12-----12-----12-----12------10-----10-----10-----10-----10-----8------
Bb-15b17~-15b17~-15b17~-15b17~-15b17~--13b15~-13b15~-13b15~-13b15~-13b15~-11b13~-
Gb-------------------------------------------------------------------------------
Db-------------------------------------------------------------------------------
Ab-------------------------------------------------------------------------------
Eb-------------------------------------------------------------------------------

Eb-------------------------------------------------------------------------------
Bb-10-9-8--------------------------5-5-8p5------8/10-----------------------------
Gb--------9-8-7--7p5---7-7p5~--7b9---------7/9-------12/14-----------------------
Db-------------------7-----------------------------------------------------------
Ab-------------------------------------------------------------------------------
Eb-------------------------------------------------------------------------------

Eb-------------------15b17~------------------------------------------------------
Bb-13-15-15-15p13----------------------------------------------------------------
Gb----------------14-------------------------------------------------------------
Db-------------------------------------------------------------------------------
Ab-------------------------------------------------------------------------------
Eb-------------------------------------------------------------------------------

Bridge:
Listen!
A chord diagramC5C5       A chord diagramD5D5        (Riff 2) (Solo 4)
One heart  is breakin’
A chord diagramC5C5        A chord diagramD5D5       (Riff 3) (Solo 5)
One chance  I’m takin’
 A chord diagramC5C5    A chord diagramD5D5      (Riff 2) (Solo 6)
No lies, no fakin’
 A chord diagramC5C5     A chord diagramD5D5                A chord diagramE5E5
Goodbye,  feels like it should!


Yeah, let me tell ya’ how it feels...
          A chord diagramC5C5  A chord diagramA5A5
it feels good!

Chorus:
(Riff)
Hell or hallelujah!

No matter what you do, I’m running through ya

C’mon c’mon
 (Solo 7)
Hell or hallelujah!

The rest is up to you

It’s overdue ya

Riff Final:
                           A chord diagramC5C5 A chord diagramD5D5
Eb------------------------------
Bb------------------------------
Gb-5/4-0-5/4-0-5/4-0-5/4-0-5--7-
Db-5/4-0-5/4-0-5/4-0-5/4-0-5--7-
Ab-------------------------3--5-
Eb------------------------------

                           A chord diagramG MajorG A chord diagramD5D5
Eb-------------------------------
Bb-------------------------3--3--
Gb-5/4-0-5/4-0-5/4-0-5/4-0-0--2--
Db-5/4-0-5/4-0-5/4-0-5/4-0-0--0--
Ab-------------------------x-----
Eb-------------------------3-----

           A chord diagramG MajorG  A chord diagramD5D5 A chord diagramA5A5
Eb---------3--------------------
Bb---------3--2-----------------
Gb---------0--3-----------------
Db---------0--0--2-2-2-2-2-2----
Ab-----3-5-x-----0-0-0-0-0-0----
Eb-3-5-----3--------------------

Solo Final:
Eb-15b17~-15-12-------------------------------------
Bb--------------13-15-13b14----15-13~---------------
Gb--------------------------14---------14-14~--14--
Db--------------------------------------------------
Ab--------------------------------------------------

Hell Or Hallelujah tab

Kiss guitar tabs for Hell or hallelujah New song from an old band. With this song and album Gene, Paul, Tommy and Eric, has returned with good rock and roll, just as the fans are used to. This was the first single from the 2012 album monster. It has also been on all concerts since it's release, at first titled "Tell Her Hallelujah". In the first week The song debuted at number one on iTunes Top Rock Songs chart. These guitar tabs and chords cover the whole song.

Other versions of Hell Or Hallelujah

HellorhallelujahChords
data-matched-content-ui-type="image_card_stacked"

Almost there ...

Sign in to get your own page with links to favourite songs and more. You are just one click away...

Login with Facebook Login with Google