Guitar Tabs Explorer
Kiss bass tabs for God of thunder

God Of Thunder bass tab


5 / 5 [1 vote]

God Of Thunder bass tab by Kiss

Bass tabs

Print

This is as accurate is it's going to get!  listen to song to get the correct timing.
Submitted by Nolan Goyett
INTRO
---------------------------
---------------------------
-----7---5-7---------------
0-0---7--------------------



---------------------------
-----------------5---------
------7----5-7-------------
0-0----7-------------------

Comment this song and these bass tabs

Do you have corrections, comments on the bass tabs, thoughts about the song or a message to the author? Write them below.