Guitar Tabs Explorer
Kiss guitar tabs for God gave rock and roll solo

God Gave Rock And Roll Solo tab


Be the first to rate

God Gave Rock And Roll Solo tab by Kiss

Guitar tabs

Print
Tabbed by: Kalen Austin

Tuning: Down 1/2 Step - Eb chord diagramEbEb Ab chord diagramAbAb Db chord diagramDbDb Gb chord diagramGbGb Bb chord diagramBbBb Eb chord diagramEbEb


Guitar I (Ace Frehley)
e|---------------------------------------------------------------------------|
B|---------14br-14br----------14--17br-17br---14-15br------------------------|
G|-----14-------------14--16-------------------------------------------------|
D|--14-----------------------------------------------------------------------|
A|---------------------------------------------------------------------------|
E|---------------------------------------------------------------------------|


Guitar II (Ace Frehley)
e|---------------------------------------------------------------------------|
B|--------------------------------14br-14br----------------------------------|
G|----------------------------14--------------14-12-11-----------------------|
D|------------------------14-------------------------------------------------|
A|---------------------------------------------------------------------------|
E|---------------------------------------------------------------------------|



e|------------------------------12----------------------14-14br--------------|
B|-----------17br-17br--14---------15b---------14-15-17----------------------|
G|-----14br----------------16------------14-16-------------------------------|
D|--14-----------------------------------------------------------------------|
A|---------------------------------------------------------------------------|
E|---------------------------------------------------------------------------|



e|---------------------------------------------------------------------------|
B|------------------------------10-------------------------------------------|
G|-----------14br-14br--11---------12b------------11-12-14-14br--------------|
D|-------------------------14------------11-12-14----------------------------|
A|---------------------------------------------------------------------------|
E|---------------------------------------------------------------------------|



e|--12b-12------5-----------------5-----8---5-----9---5-----10--5------------|
B|----------------8-5---------------8-5-------8-5-------8-5--------7---------|
G|--------------------8-7-5-------------------------------------------7------|
D|--------------------------7------------------------------------------------|
A|---------------------------------------------------------------------------|
E|---------------------------------------------------------------------------|



e|---------------------------------------------------------------------------|
B|--16b-15b------------------------------------------------------------------|
G|---------------------------------------------------------------------------|
D|---------------------------------------------------------------------------|
A|---------------------------------------------------------------------------|
E|---------------------------------------------------------------------------|



e|---------------------------------------------------------------------------|
B|--7--7---7--7--------------------------------------------------------------|
G|--7--7---7--7--------------------------------------------------------------|
D|--7--7---7--7--------------------------------------------------------------|
A|--5--5---5--5--------------------------------------------------------------|
E|---------------------------------------------------------------------------|



e|---------------------------------------------------------------------------|
B|---------------------------------------------------------------------------|
G|---------------------------------------------------------------------------|
D|---------------------------------------------------------------------------|
A|---------------------------------------------------------------------------|
E|---------------------------------------------------------------------------|

| b  bend
| br bend release
| /  slide up
| \  slide down
| h  hammer-on
| p  pull-off
| ~  vibrato
| +  harmonic
| x  Mute note

Other versions of God Gave Rock And Roll Solo

- God gave rock and roll to youChords
- God gave rock and roll to youTabs

Comment this song and these guitar tabs

Do you have corrections, comments on the guitar tabs, thoughts about the song or a message to the author? Write them below.