Guitar Tabs Explorer
Kiss guitar chords for Deuce

Deuce chords


5 / 5 [1 vote]

Deuce chords by Kiss

Guitar chords with lyrics

Print

(intro)

(parte 1)

Eb chord diagramEbEb|-|----------------------------|     2x
Bb chord diagramBbBb|-|----------------------------|
Gb chord diagramGbGb|-|------14--14-14---14-14-14--|
Db chord diagramDbDb|-|------14--14-16---14-16-14--|
Ab chord diagramAbAb|-|--0-------------------------|
Eb chord diagramEbEb|-|----------------------------|

        {deixe soando a quinta corda}

(final parte 1)

E|-|------|
B|-|------|
G|-|------|
D|-|--10--|
A|-|--10--|
E|-|------|



E|-|-------------------------------------------|
B|-|-------------------------------------------|
G|-|-----------10-----------------12--12-----------|
D|-|-10-10-----10--12-12----------12--14p12--------|
A|-|-10-10h12------12-12--12h14---------------14---|
E|-|-------------------------------------------|


(toca parte 1 - sem "final parte 1")


E|-|---------------------------------------------------|
B|-|---------------------------------------------------|
G|-|-------------10--------------------------------------|
D|-|-10--10------10----10-------------------------------|
A|-|-10--10h12---------10-------------------------------|
E|-|---------------------------------------------------|


(riff 1)

E|-|------------------------|--------------------------|
B|-|------------------------|--------------------------|
G|-|-----------5-5-5---7-5--|--5-5--5h7----------------|
D|-|--7-7-7----5-5-5---7-5--|--5-5--5h7----7-5--7------|
A|-|--7-7-7-----------------|--------------7-5--7------|
E|-|------------------------|--------------------------|


(riff 2)

E|-|---------------------------------------------------|
B|-|---------------------------------------------------|
G|-|---------5---7-----------------------------5-------|
D|-|--2------5---7----riff 1-------------------5-------|
A|-|--0------3---5-----------------------------3-------|
E|-|---------------------------------------------------|


(riff 3)

E|-|--------------------------------------------------------|
B|-|--------------------------------------------------------|
G|-|---~----------------------~-----------------------------|
D|-|--------------------------~-----------------------------|
A|-|--3~----3-4-5------------3~-----3-4-5-------------------|
E|-|----------------3-4-5-------------------3-4-5-----------|


(riff 4)

E|-|---------------------------------------------------|
B|-|---------------------------------------------------|
G|-|---------------------------------------------------|
D|-|--3---------------5-5-5----------------------------|
A|-|--3---------------5-5-5----------------------------|
E|-|--1---------------3-0-3----------------------------|


(letra)

(intro)
(riff 1)

(riff 2)  (riff 1)
Get up, and get your grandma outta here
(riff 2)  (riff 1)
Pick up, old jim is workin' hard this year
(riff 4)
And baby, do the things he says to do

(riff 3)
Baby, if you're feeling good
(riff 3)
And baby if you're feeling nice
(riff 4)
You know your man is workin' hard
He's worth a deuce

(riff 2)
Honey, don't put your man behind his years
And baby, stop cryin' all your tears
Baby, do the things he says to do
Do it

Baby, if you're feeling good
And baby if you're feeling nice
You know your man is workin' hard
He's worth a deuce

(solo)

And baby, if you're feeling good
Yes baby if you're feeling nice
You know your man is workin' hard

yeah
(fade out)

E|-|-15-------------15----------|
B|-|----20-15-20b----20--15-----|
G|-|--------------------------19|
D|-|----------------------------|
A|-|----------------------------|
E|-|----------------------------|

H chord diagramHH - hammer on
P - pull off

Other versions of Deuce

- DeuceTabs

Comment this song and these guitar chords

Do you have corrections, comments on the guitar chords, thoughts about the song or a message to the author? Write them below.