Guitar Tabs Explorer
Kiss bass tabs for Calling dr love

Calling Dr. Love bass tab


Be the first to rate

Calling Dr. Love bass tab by Kiss

Bass tabs

Print
Tabbed By:Gary Hricewich
E-mail:snapper2001@msn.com

TUNE DOWN 1/2 STEP      Eb Ab Db Gb


                    2X
G---|----|---|---|----|-------|-------|-------|-------|-------|
D---|*---|---|---|---*|-------|-------|-------|-------|-------|
A---|*---|---|-5-|-0-*|-0-2---|-7-----|-----5-|-5-3-0-|-0-----|
E---|--0-|-3-|---|----|-----0-|---0-3-|-3-0---|-------|---3-0-|


 VERSE 1
G---------|-------|-------|-------|-------|-----|-----|--------------------|
D---------|-------|-------|-------|-------|-----|-5---|--------------------|
A---7-----|-----5-|-5-3-0-|-0-----|-------|-2-3-|---5-|-3-3--3-3--3-3--3-5-|
E-----0-3-|-3-0---|-------|---3-0-|-3-0-3-|-----|-----|--------------------|


 CHORUS                       2X                END CHORUS
G---|-------------|-------------|------------|--------------|
D---|*------------|------------*|------------|--------------|
A---|*-7\-----7-5-|----------7-*|-7\-----7---|-----5------7-|
E---|----0--0-----|-7--5-3-0----|---0--0---0-|-7-5----7-5---|


 PRE VERSE 2
G---------|-------|-------|-------|
D---------|-------|-------|-------|
A---7-----|-----5-|-5-3-0-|-0-----|
E-----0-3-|-3-0---|-------|---3-0-|


 VERSE 2                           2X
G---|--------|-------|-------|--------|--------------|---------------|
D---|*-------|-------|-------|-------*|--------------|---------------|
A---|*-------|-2-3-5-|-5-3-0-|-0-----*|--------------|---------2-3-5-|
E---|--0-2-3-|-------|-------|---3-0--|-0-0--0-0-2-3-|-3-3-3-3-------|



G-----------------|---------------|----------------|-----------------|
D-----------------|---------------|----------------|-----------------|
A---5-5-5-5-3-2-0-|-0-0-0-0-------|----------------|-------------2-3-|
E-----------------|---------3-2-0-|-0-0-0-0--0-2-3-|(3)-3-3-3--3-----|


                            END VERSE 2
G----------|---------------|-----------|
D---5------|---------------|-----------|
A-------5--|-3-3--3-3--3-3-|-3--5-5--5-|
E----------|---------------|-----------|

REPEAT CHORUS 2X


 GUITAR SOLO                                                        3X
G---|----------------|---------------|---------------|----------------|
D---|*---------------|---------------|---------------|---------------*|
A---|*---------------|---------2-3-5-|-5-5-5-5-3-2-0-|-0-0-0-0-------*|
E---|--0-0-0-0-0-2-3-|-3-3-3-3-------|---------------|---------3-2-0--|



G-----------------|-------------|------|---------------|-----------|
D-----------------|-------------|-5----|---------------|-----------|
A-----------------|---------2-3-|----5-|-3-3--3-3--3-3-|-3--5-5--5-|
E---0-0-0-0-0-2-3-|-3-3-3-3-----|------|---------------|-----------|

REPEAT CHORUS 3X/FADE OUT/END


BASS FILL/END OF SONG
G-------------------|
D-------------------|
A----------5------7-|
E--(8)-7-5----7-5-0-|

Comment this song and these bass tabs

Do you have corrections, comments on the bass tabs, thoughts about the song or a message to the author? Write them below.