Guitar Tabs Explorer
Kiss guitar chords for Any way you want it

Any Way You Want It chords


Be the first to rate

Any Way You Want It chords by Kiss

Guitar chords

Print
KISS    ANY WAY YOU WANT IT (Clark)
transcription by Braghieri Carlo
Genova - Biella   Italia

This song is  from  the 4° side of ALIVE II('77). It's a cover of Dave
Clark's song of '64! I think it's very great, with a sound very sixty!
About this tab,i've some doubt,then any corrections are very WELCOMED.
For every thing: braghiericarlo@hotmail.com


ps x franco il downloader:C chord diagramCC'é grossa crisi! non ci sto più dentrooo...
    ...ZIO TURBOMINKIAPOWERPORCOOOOO.....!!!!!

  key:     tuning half step down (Eb chord diagramEbEb)

/ - slide

     .....enjoy!


RIFF1
1|---------------|
2|---------------|
3|--2-2---2-2-2--|
4|--2-2---2-2-2--|
5|--0-0---0-0-0--|
6|---------------|
     <- - x2- ->

RIFF2 - verse1
1|----------------------------------------------------|
2|----------------------------------------------------|
3|-2-2--2-2-2---------------------2-2--2-2-2----------|
4|-2-2--2-2-2-----4-4--4-4-4-4----2-2--2-2-2----4-----|
5|-0-0--0-0-0-----4-4--4-4-4-4----0-0--0-0-0----4-----|
6|----------------2-2--2-2-2-2------------------2-----|
    <- - - - - - X3- - - - - ->
    Any way...
RIFF3 - chorus
1|----------------------------------------------------|
2|----------------------------------------------------|
3|-2-2--2-2-2---------------------7-7-7-7--9-9-9-9----|
4|-2-2--2-2-2-----4-4--4-4-4-4----7-7-7-7--9-9-9-9----|
5|-0-0--0-0-0-----4-4--4-4-4-4----5-5-5-5--7-7-7-7----|
6|----------------2-2--2-2-2-2------------------------|
    <- - - - - - X2- - - - - ->
    It's alright
     END RIFF3
1|----------|
2|----------|
3|-2-2-2-2--|
4|-2-2-2-2--|
5|-0-0-0-0--|
6|----------|

RIFF4
1|---------------------|
2|---------------------|
3|---------------------|
4|-2-2-2-2-2-2-2-2-2---|
5|-2-2-2-2-2-2-2-2-2---|
6|-0-0-0-0-0-0-0-0-0---|

RIFF2 - verse2
You don't...

RIFF3 - Chorus
It's alright...

RIFF5
1|-----------------------------------------------------|
2|-----------------------------------------------------|
3|-2-2-2-2-7-7-7-7--7-7-7-7----------------------------|
4|-2-2-2-2-7-7-7-7--7-7-7-7---7-7-7-7--6-7-7-7--6-7-7--|
5|-0-0-0-0-5-5-5-5--5-5-5-5---7-7-7-7--6-7-7-7--6-7-7--|
6|----------------------------5-5-5-5--4\5-5-5--4\5-5--|
            Any way, any...

1|-----------------------------------------------------------------|
2|-----------------------------------------------------------------|
3|--7-7-7-7--7-7-7-7--4-4-4-4-4-4-4-4--9-9-9-9-9-9-9-9-9-9-9-9-9-9-|
4|--7-7-7-7--7-7-7-7--4-4-4-4-4-4-4-4--9-9-9-9-9-9-9-9-9-9-9-9-9-9-|
5|--5-5-5-5--5-5-5-5--2-2-2-2-2-2-2-2--7-7-7-7-7-7-7-7-7-7-7-7-7-7-|
6|-----------------------------------------------------------------|

END RIFF5
1|------|
2|------|
3|-9-9--|
4|-9-9--|
5|-7-7--|
6|------|

RIFF2 - verse3
Any way...

RIFF3 - chorus
It's alright...

RIFF5
Any way...

RIFF2 - verse4
Any way...

RIFF3 - chorus


RIFF6
1|----------------------------------------------------|
2|------------------------------------------------0---|
3|-7-7--9-9--2-2-2-2--7-7--9-9--2-2-2-2-2-2-2-2---2---|
4|-7-7--9-9--2-2-2-2--7-7--9-9--2-2-2-2-2-2-2-2---2---|
5|-5-5--7-7--0-0-0-0--5-5--7-7--0-0-0-0-0-0-0-0---0---|
6|----------------------------------------------------|
    That's the way...



________________________________________________________________________________


________________________________________________________________________________

Comment this song and these guitar chords

Do you have corrections, comments on the guitar chords, thoughts about the song or a message to the author? Write them below.