Search tabs and chords

Search for song, artist or band

Log in

One click and you are in

Login with Facebook Login with Google

Why sign up and log in

Guitar Tabs Explorer
Ben E. King bass tabs for Stand by me acoustic

Bass tabs

Tuning: Standard (E A D G)



INTRO:

G|-----------------|------------------|------------------|-----------------|---------------------|
D|--7--7-------6-7-|-7-----7-6-4---4--|----4--4---4------|---------4-------|---6-7--7----6-7--7--|
A|-----------7-----|------------------|-7-----------7-5--|-5-----5---7---7-|-7---------7---------|
E|-----------------|------------------|------------------|-----------------|---------------------|


THE REST OF THE SONG:

G||-----------------|-----------------|-----------------|------------------|
D||*----6--7----7---|----6--7----7----|---7--6--4----4--|-------4--4-------|
A||*-7--------------|-7---------------|-----------------|---7--------------|
E||-----------------|-----------------|-----------------|------------------|

G|-----------------|-----------------|-----------------|------------------||
D|--4--------------|-----4-----------|----6--7----7----|----6--7----7----*||
A|-----7--5---5----|--5-----7---7----|-7---------------|-7---------------*||
E|-----------------|-----------------|-----------------|------------------||

Other versions of Stand By Me Acoustic

Stand by meBass tabs
Stand by me (Ver. 2)Bass tabs

Almost there ...

Sign in to get your own page with links to favourite songs and more. You are just one click away...

Login with Facebook Login with Google