Search tabs and chords

Browse bands and artists

A B C D E F G H I J K L M N O P Q R S T U V W X Y Z #

Log in

[ Register here | Forgot password ]

Guitar Tabs Explorer
Print

I'm With You tab by Vance Joy

Guitar tabs

"I'm with You" is a song from Australian singer-songwriter Vance Joy's second studio album, "Nation of Two". The album was released on February 23, 2018.

  • Tuning: Drop D
  • Difficulty: Intermediate
NOTE: Vance Joy plays it with many little variations throughout the whole song.
To simplify, you could not drop D and just play the fourth open string all the time. You can skip
the Am transitions to C where he plays the third string, 4th fret, as well as the hammer ons.


Intro
e|-------0-----|-------3-----|-------3-----|-------3-----|
B|-----0---0---|-----0---0---|-----1---1---|-----0---0---|
G|---0-------0-|---0-------0-|---0-------0-|---0-------0-|
D|-------------|-------------|-------------|-------------|
A|-------------|-------------|-3-----------|-------------|
D|-2-----------|-5-----------|-------------|-5-----------|

e|-------3-----|-------3-----|-------3-----|-------3-----|
B|-----0---0---|-----0---0---|-----1---1---|-----1---1---|
G|---0-------0-|---0-------0-|---0-------0-|---0-------0-|
D|-------------|-------------|-------------|-------------|
A|-------------|-------------|-3-----------|-3-----------|
D|-2-----------|-5-----------|-------------|-------------|




Verse
e|-------3-----|-------3-----|-------3-----|-------3-----|
B|-----0---0---|-----0---0---|-----1---1---|-----0---0---|
G|---0-------0-|---0-------0-|---0-------0-|---0-------0-|
D|-------------|-------------|-------------|-------------|
A|-------------|-------------|-3-----------|-------------|
D|-2-----------|-5-----------|-------------|-5-----------| x4



Pre-chorus
e|-------5-----|-------3-----|-------3-----|-------3-----|
B|-----3---3---|-----0---0---|-----1---1---|-----1---1---|
G|---2-------2-|---0-------0-|---0-------0-|---0-------0-|
D|-0-----------|-------------|-------------|-------------|
A|-------------|-------------|-3-----------|-3-----------|
D|-------------|-5-----------|-------------|-------------| x2



Chorus
e|-------3-----|-------5-----|-------0-----|-------3-----|
B|-----0---0---|-----3---3---|-----1---1---|-----1---1---|
G|---0-------0-|---2-------2-|---2-------2-|---0-------0-|
D|-------------|-0-----------|-------------|-------------|
A|-------------|-------------|-0-----------|-3-----------|
D|-5-----------|-------------|-------------|-------------|

e|-------3-----|-------5-----|-------3-----|-------3-----|
B|-----0---0---|-----3---3---|-----1---1---|-----1---1---|
G|---0-------0-|---2-------2-|---2-------2-|---0-------0-|
D|-------------|-0-----------|-------------|-------------|
A|-------------|-------------|-0-----------|-3-----------|
D|-5-----------|-------------|-------------|-------------|

Both x2


Post-chorus
e|-------3-----|-------2h3p2-----|-------0-----|-------3-----|
B|-----0---0---|-----3-------3---|-----1---1---|-----1---1---|
G|---0-------0-|---2-----------2-|---2-------2-|---0-------0-|
D|-------------|-----------------|-------------|-------------|
A|-------------|-----------------|-0-----------|-3-----------|
D|-5-----------|-0---------------|-------------|-------------| x2


Verse
e|-------0-----|-------3-----|-------3-----|-------3-----|
B|-----0---0---|-----0---0---|-----1---1---|-----0---0---|
G|---0-------0-|---0-------0-|---0-------0-|---0-------0-|
D|-------------|-------------|-------------|-------------|
A|-------------|-------------|-3-----------|-------------|
D|-2-----------|-5-----------|-------------|-5-----------|

e|-------3-----|-------3-----|-------3-----|-------3-----|
B|-----0---0---|-----0---0---|-----1---1---|-----0---0---|
G|---0-------0-|---0-------0-|---0-------0-|---0-------0-|
D|-------------|-------------|-------------|-------------|
A|-------------|-------------|-3-----------|-------------|
E|-2-----------|-5-----------|-------------|-5-----------| x3


Pre-chorus
e|-------2-----|-------3-----|-------3-----|-------3-----|
B|-----3---3---|-----0---0---|-----1---1---|-----1---1---|
G|---2-------2-|---0-------0-|---0-------0-|---0-------0-|
D|-0-----------|-------------|-------------|-------------|
A|-------------|-------------|-3-----------|-3-----------|
D|-------------|-5-----------|-------------|-------------| x2


Chorus
e|-------3-----|-------5-----|-------3-----|-------3-----|
B|-----0---0---|-----3---3---|-----1---1---|-----1---1---|
G|---0-------0-|---2-------2-|---2-------2-|---0-------0-|
D|-------------|-0-----------|-------------|-------------|
A|-------------|-------------|-0-----------|-3-----------|
D|-5-----------|-------------|-------------|-------------|

e|-------3-----|-------5-----|-------3-----|-------3-----|
B|-----0---0---|-----3---3---|-----1---1---|-----1---1---|
G|---0-------0-|---2-------2-|---2-------2-|---0-------0-|
D|-------------|-0-----------|-------------|-------------|
A|-------------|-------------|-0-----------|-3-----------|
D|-5-----------|-------------|-------------|-------------|

e|-------3-----|-------2h3p2-----|-------3-----|-------3-----|
B|-----0---0---|-----3-------3---|-----1---1---|-----1---1---|
G|---0-------0-|---2-----------2-|---2-------2-|---0-------0-|
D|-------------|-0---------------|-------------|-------------|
A|-------------|-----------------|-0-----------|-3-----------|
D|-5-----------|-----------------|-------------|-------------|

e|-------3-----|-------2-----|-------0-----|-------3-----|
B|-----0---0---|-----3---3---|-----1---1---|-----1---1---|
G|---0-------0-|---2-------2-|---2-------2-|---0-------0-|
D|-------------|-0-----------|-------------|-------------|
A|-------------|-------------|-0-----------|-3-----------|
D|-5-----------|-------------|-------------|-------------|


Post-chorus
e|-------3-----|-------5-----|-------3-----|-------3-----|
B|-----0---0---|-----3---3---|-----1---1---|-----1---1---|
G|---0-------0-|---2-------2-|---2-------4-|---0-------0-|
D|-------------|-------------|-------------|-------------|
A|-------------|-------------|-0-----------|-3-----------|
D|-5-----------|-0-----------|-------------|-------------|

e|-------3-----|-------5-----|-------3-----|-------3-----|
B|-----0---0---|-----3---3---|-----1---1---|-----1---1---|
G|---0-------0-|---2-------2-|---2-------2-|---0-------0-|
D|-------------|-------------|-------------|-------------|
A|-------------|-------------|-0-----------|-3-----------|
D|-5-----------|-0-----------|-------------|-------------|

e|-------3-----|-------5-----|-------3-----|-------3-----|
B|-----0---0---|-----3---3---|-----1---1---|-----1---1---|
G|---0-------0-|---2-------2-|---2-------2-|---0-------0-|
D|-------------|-0-----------|-------------|-------------|
A|-------------|-------------|-0-----------|-3-----------|
D|-5-----------|-------------|-------------|-------------| x2

e|-------3-----|-------2h3p2-----|-------0-----|-------3-----|
B|-----0---0---|-----3-------3---|-----1---1---|-----1---1---|
G|---0-------0-|---2-----------2-|---2-------2-|---0-------0-|
D|-------------|-0---------------|-------------|-------------|
A|-------------|-----------------|-0-----------|-3-----------|
D|-5-----------|-----------------|-------------|-------------|

e|-------3-----|-------2h3p2-----|-------3-----|-------3-----|
B|-----0---0---|-----3-------3---|-----1---1---|-----1---1---|
G|---0-------0-|---2-----------2-|---2-------4-|---0-------0-|
D|-------------|-0---------------|-------------|-------------|
A|-------------|-----------------|-0-----------|-3-----------|
D|-5-----------|-----------------|-------------|-------------|

e|-------3-----|-------5-----|-------0-----|-------3-----|
B|-----0---0---|-----3---3---|-----1---1---|-----1---1---|
G|---0-------0-|---2-------2-|---2-------4-|---0-------0-|
D|-------------|-0-----------|-------------|-------------|
A|-------------|-------------|-0-----------|-3-----------|
D|-5-----------|-------------|-------------|-------------| x2

e|-------3-----|-------2h3p2-----|-------3-----|-------3-----|
B|-----0---0---|-----3-------3---|-----1---1---|-----1---1---|
G|---0-------0-|---2-----------2-|---2-------2-|---0-------0-|
D|-------------|-0---------------|-------------|-------------|
A|-------------|-----------------|-0-----------|-3-----------|
D|-5-----------|-----------------|-------------|-------------| x2


Outro
e|-------3-----|-------2-----|-------0-----|-------0-----|
B|-----0---0---|-----3---3---|-----1---1---|-----1---1---|
G|---0-------0-|---2-------2-|---2-------2-|---0-------0-|
D|-------------|-------------|-------------|-------------|
A|-------------|-------------|-0-----------|-3-----------|
D|-5-----------|-0-----------|-------------|-------------|

e|-------3-----|-------5-----|---|
B|-----0---0---|-----3---3---|---|
G|---0-------0-|---2-------2-|---|
D|-------------|-------------|---|
A|-------------|-------------|-0-|
D|-5-----------|-0-----------|---|





************************************

| h   Hammer-on
| p   Pull-off

************************************

Other versions of I'm With You

- I'm with youChords
- I'm with you (Ver. 2)Chords

Comments