Guitar Tabs Explorer
Iron Maiden bass tabs for Brave new world

Brave New World bass tab


5 / 5 [1 vote]

Brave New World bass tab by Iron Maiden

Bass tabs

Print
Title: Brave New World (Bass)

Album: Brave New World

ESPAÑA
Up the Irons !!!





|-----------------------------|
|-----------------------------|
|-7-10-5.-3-5-5.-7-10-5-3-5-7-|
|-----------------------------|

 Intro (6x)



|----------------------------------------------------------------------------
|.---------------------------------------------------------------------------
|.-5-5-5-5-5-5-5-5-5-5-5-5-5-5-5-5-1-1-1-1-1-1-1-1-1-1-1-1-1-1-1-1-3-3-3-3-3-
|----------------------------------------------------------------------------

  Verso

-------------------------------------------------------|---------------------
------------------------------------------------------.|.--------------------
3-3-3-3-3-3-3-3-3-3-3-5-5-5-5-5-5-5-5-5-5-5-5-5-5-5-5-.|.-1-1-1-1-1-1-1-1-1-1
-------------------------------------------------------|---------------------



-----------------------------------------------------------------------------
-----------------------------------------------------------------------------
-1-1-1-1-1-1-3-3-3-3-3-3-3-3-3-3-3-3-3-3-3-3-1-1-1-1-1-1-1-1-1-1-1-1-1-1-1-1-
-----------------------------------------------------------------------------



---------------------------------|--7-----------------------3----------------
--------------------------------.|.-7-----------------------3----------------
5-5-5-5-5-5-5-5-5-5-5-5-5-5-5-5-.|.-5-5-5-5-5-5-5-5-5-5-5-5-1-1-1-1-1-1-1-1-1
---------------------------------|-------------------------------------------

                                   Refrão

-------5-----------------------7-----------------------7---------------------
-------5-----------------------7-----------------------7---------------------
-1-1-1-3-3-3-3-3-3-3-3-3-3-3-3-5-5-5-5-5-5-5-5-5-5-5-5-5-5-5-5-5-5-5-5-5-5-5-
-----------------------------------------------------------------------------



3--------------------------------------------------7------------------------|
3------------------------5-------------------------7-----------------------.|
1-1-1-1-1-1-1-1-1-1-1-1--5-------------------------5-5-5-5-5-5-5-5-5-5-5-5-.|
-------------------------3-3-3-3-3-3-3-3-3-3-3-3-3--------------------------|



|----------------------------------------------------------------------------
|.---------------------------------------------------------------------------
|.-5-5-5-5-5-5-5-5-5-5-5-5-5-5-5-5-1-1-1-1-1-1-1-1-1-1-1-1-1-1-1-1-3-3-3-3-3-
|----------------------------------------------------------------------------

  Verso

-------------------------------------------------------|---------------------
------------------------------------------------------.|.--------------------
3-3-3-3-3-3-3-3-3-3-3-5-5-5-5-5-5-5-5-5-5-5-5-5-5-5-5-.|.-1-1-1-1-1-1-1-1-1-1
-------------------------------------------------------|---------------------



-----------------------------------------------------------------------------
-----------------------------------------------------------------------------
-1-1-1-1-1-1-3-3-3-3-3-3-3-3-3-3-3-3-3-3-3-3-1-1-1-1-1-1-1-1-1-1-1-1-1-1-1-1-
-----------------------------------------------------------------------------









---------------------------------|--7-----------------------3----------------
--------------------------------.|.-7-----------------------3----------------
5-5-5-5-5-5-5-5-5-5-5-5-5-5-5-5-.|.-5-5-5-5-5-5-5-5-5-5-5-5-1-1-1-1-1-1-1-1-1
---------------------------------|-------------------------------------------

                                   Refrão

-------5-----------------------7-----------------------7---------------------
-------5-----------------------7-----------------------7---------------------
-1-1-1-3-3-3-3-3-3-3-3-3-3-3-3-5-5-5-5-5-5-5-5-5-5-5-5-5-5-5-5-5-5-5-5-5-5-5-
-----------------------------------------------------------------------------



3--------------------------------------------------7------------------------|
3------------------------5-------------------------7-----------------------.|
1-1-1-1-1-1-1-1-1-1-1-1--5-------------------------5-5-5-5-5-5-5-5-5-5-5-5-.|
-------------------------3-3-3-3-3-3-3-3-3-3-3-3-3--------------------------|



|----------------------------------------------------------------------------
|.---------------------------------------------------------------------------
|.-5-5-5-5-5-5-5-5-5-5-5-5-5-5-5-5-1-1-1-1-1-1-1-1-1-1-1-1-1-1-1-1-3-3-3-3-3-
|----------------------------------------------------------------------------

  Solo

-------------------------------------------------------|---------------------
------------------------------------------------------.|.--------------------
3-3-3-3-3-3-3-3-3-3-3-5-5-5-5-5-5-5-5-5-5-5-5-5-5-5-5-.|.-1-1-1-1-1-1-1-1-1-1
-------------------------------------------------------|---------------------



-----------------------------------------------------------------------------
-----------------------------------------------------------------------------
-1-1-1-1-1-1-3-3-3-3-3-3-3-3-3-3-3-3-3-3-3-3-1-1-1-1-1-1-1-1-1-1-1-1-1-1-1-1-
-----------------------------------------------------------------------------



---------------------------------|-------------------------------------------
--------------------------------.|.------------------------------------------
5-5-5-5-5-5-5-5-5-5-5-5-5-5-5-5-.|.-7-7-7-7-7-7-7-7-7-7-7-7-7-7-3-3-3-3-3-3-3
---------------------------------|-------------------------------------------


----------------------------------------------------------------------------|
---------------------------------------------------------------------------.|
-3-3-3-3-3-3-3-5-5-5-5-5-5-5-5-5-5-5-5-5-5-5-7-7-7-7-7-7-7-7-7-7-7-7-7-7-7-.|
----------------------------------------------------------------------------|


|----------------------------------------------------------------------------
|.---------------------------------------------------------------------------
|.-7-7-7-7-7-7-7-7-7-7-7-7-3-3-3-3-3-3-3-3-3-3-3-3-3-5-5-5-5-5-5-5-5-5-5-5-5-
|----------------------------------------------------------------------------


-----------------------------------------------------------------------------
-----------------------------------------------------------------------------
-7-7-7-7-7-7-7-7-7-7-7-7-7-7-7-7-7-7-7-7-7-7-3-3-3-3-3-3-3-3-3-3-3-3-5-5-5-5-
-----------------------------------------------------------------------------


-------------------------------------------------7---------------------------
-----------------------------7-9---7-9-10-7-9-10-----------------------------
5-5-5-5-5-5-5-5--7-9-10-9-10-----10----------------7-7-7-7-7-7-7-7-7-7-7-7-7-
-----------------------------------------------------------------------------




-----------------------------------------------------------------------------
-----------------------------------------------------------------------------
7-3-3-3-3-3-3-3-3-3-3-3-3-5-5-5-5-5-5-5-5-5-5-5-5-7-7-7-7-7-7-7-7-7-7-7-7-7-7
-----------------------------------------------------------------------------


-----------------------------------------------------------------------------
-----------------------------------------------------------------------------
-7-7-7-7-7-7-7-7-7.7-7-3-3-3-3-3-3-3-3-3-3-3-3.3-5-5-5-5-5-5-5-5-5-5-5-5-5---
-----------------------------------------------------------------------------



9-7----7-----------------------------|-7-----------------------3-------------
----10--10-9-10-9-7-9-7----7--------.|-7-----------------------3-------------
------------------------10---10-9-7-.|-5-5-5-5-5-5-5-5-5-5-5-5-1-1-1-1-1-1-1-
-------------------------------------|---------------------------------------

                                       Riff



-----------5---------------------7---------------------7---------------------
-----------5---------------------7---------------------7---------------------
-1-1-1-1-1-3-3-3-3-3-3-3-3-3-3-3-5-5-5-5-5-5-5-5-5-5-5-5-5-5-5-5-5-5-5-5-5-5-
-----------------------------------------------------------------------------



3--------------------------------------------------7-------------------------
3------------------------5-------------------------7-------------------------
1-1-1-1-1-1-1-1-1-1-1-1--5-------------------------5-5-5-5-5-5-5-5-5-5-5-5-5-
-------------------------3-3-3-3-3-3-3-3-3-3-3-3-3---------------------------



-7-----------------------3-----------------------5-----------------------7---
-7-----------------------3-----------------------5-----------------------7---
-5-5-5-5-5-5-5-5-5-5-5-5-1-1-1-1-1-1-1-1-1-1-1-1-3-3-3-3-3-3-3-3-3-3-3-3-5-5-
-----------------------------------------------------------------------------



--------------------7-----------------------3--------------------------------
--------------------7-----------------------3-------------------------5------
5-5-5-5-5-5-5-5-5-5-5-5-5-5-5-5-5-5-5-5-5-5-1-1-1-1-1-1-1-1-1-1-1-1-1-5------
----------------------------------------------------------------------3-3-3-3



----------------7-|
----------------7-|
----------------5-|
3-3-3-3-3-3-3-3---|



|-----------------------------|
|-----------------------------|
|-7-10-5.-3-5-5.-7-10-5-3-5-7-|
|-----------------------------|

Other versions of Brave New World

- Brave new world albumBass tabs

Comment this song and these bass tabs

Do you have corrections, comments on the bass tabs, thoughts about the song or a message to the author? Write them below.