Search tabs and chords

Browse bands and artists

A B C D E F G H I J K L M N O P Q R S T U V W X Y Z #

Log in

[ Register here | Forgot password ]

Guitar Tabs Explorer
Print

Guitar tabs :

Aces High Solo tab by Iron Maiden

Tune at E.


    1+......-  1+....-
E-|---------------------------------------------------|
B-|------------8-------8^5---5------------------------|
G-|-7----------------------7---7-5-7^5---5------------|
D-|------------------------------------7---7-5-7^5----|
A-|------------------------------------------------7--|
E-|---------------------------------------------------|

       t     t     t     t     t     t     t     t
E-|-0--8^0^5-7^0^5-8^0^5-7^0^5-8^0^5-7^0^5-5^0^3-5^0^3-|
B-|----------------------------------------------------|
G-|----------------------------------------------------|
D-|----------------------------------------------------|
A-|----------------------------------------------------|
E-|----------------------------------------------------|


 t     t     t     t
-8^0^5-7^0^5-8^0^5-7^0^5-|
-------------------------|
-------------------------|
-------------------------|
-------------------------|
-------------------------|


    1+     tr     tr     tr    1+........
E-|----------------------------15---------|
B-|-8-------------12^13--15^17------------|
G-|-------/12^14--------------------------|
D-|---------------------------------------|
A-|---------------------------------------|
E-|---------------------------------------|


E-|--10^7---10^9^7-10^7----10^9^7-10^7---10^9^7-10^7-|
B-|-------0-------------0--------------0-------------|
G-|--------------------------------------------------|
D-|--------------------------------------------------|
A-|--------------------------------------------------|
E-|--------------------------------------------------|

--10^9^7-10^7----10^9^7---|
0-------------0---------0-|
--------------------------|
--------------------------|
--------------------------|
--------------------------|
                                  ~~~~~~~


E-|-----------------------------------------------------------------|
B-|-<12>^0-<10>^0-<8>^0-10^0-8^0-7^0-8^0-7^0-5^0-7^0-8^0-7^0--------|
G-|----------------------------------------------------------/6----|
D-|-----------------------------------------------------------------|
A-|-----------------------------------------------------------------|
E-|-----------------------------------------------------------------|


     ~~~~~               1/2+-
E-|----------4^5^4-----4-----------------------------|
B-|--------5-------6-5---5-----3^5^3^0---------------|
G-|-/4---------------------------------2-4-2---------|
D-|------------------------------------------4-2-----|
A-|----------------------------------------------5---|
E-|--------------------------------------------------|


                              1+-             1+-
1+
E-|---------------------------------------12-<12>-----17--|
B-|-<7>-6-5------------------------/12-15---------15------|
G-|---------<7>-------------------------------------------|
D-|--------------<9>-8-7----------------------------------|
A-|----------------------9--5-7---------------------------|
E-|-------------------------------------------------------|

Other versions of Aces High Solo

Aces highChords
Aces highTabs

Comments

Iron Maiden guitar tabs for Aces high solo