Guitar Tabs Explorer
Hurts guitar tabs for Exi

Exi tab


Be the first to rate

Exi tab by Hurts

Guitar tabs

Print

-------------------------------------------------------------------------------
                             Exile - Hurts
-------------------------------------------------------------------------------
Tabbed by: Filipe A chord diagramAA. a.k.a LoboChefe
E chord diagramEE-mail:filipealves_scp@hotmail.com

Exile by hurts from the album "Exile" (2013)
If you have any questions feel free to send me an e-mail!

Bass start
e|---------------------------------------------------------------------------|
B|---------------------------------------------------------------------------|
G|---------------------------------------------------------------------------|
D|-1------------------------3-1---1------------------------------------------|
A|--3-3-3-3-3-3-3-3-3-3-3-3-----3---3----------------------------------------|
E|---------------------------------------------------------------------------|

Guitar
e|---------------------------------------------------------------------------|
B|---------------------------------------------------------------------------|
G|------------5-------7--9------9b--8----------------------------------------|
D|-6-------8-----------------------------------------------------------------| x2
A|---------------------------------------------------------------------------|
E|---------------------------------------------------------------------------|

Chorus:
e|---------------------------------------------------------------------------|
B|---------------------------------------------------------------------------|
G|-9----9-7----8~~--------------7----9-------7-7b-7--------------------------|
D|----------10---------10-10-10---10---10-10--------10-10-------17~~---------| x2
A|---------------------------------------------------------------------------|
E|---------------------------------------------------------------------------|

Again:
e|---------------------------------------------------------------------------|
B|---------------------------------------------------------------------------|
G|------------5-------7--9------9b--8------7s------------------------------|
D|-6-------8-----------------------------------------------------------------|
A|---------------------------------------------------------------------------|
E|---------------------------------------------------------------------------|

e|---------------------------------------------------------------------------|
B|---------------------------------------------------------------------------|
G|------------5-------7--9------9b--8----------------------------------------|
D|-6-------8-----------------------------------------------------------------|
A|---------------------------------------------------------------------------|
E|---------------------------------------------------------------------------|

Solo:
e|---------------------------------------------------------------------------|
B|---------------------------------------------------------------------------|
G|----13-12------15-12----13-------------------------------------------------|
D|---------------------------13----17--15--13-15-----------------------------| x6
A|-15---------13-------11------------------------15--------------------------|
E|------------------------------13-------------------------------------------|

(Shen starting again don't play first A| 15)

e|---------------------------------------------------------------------------|
B|---------------------------------------------------------------------------|
G|---------------------------------------------------------------------------|
D|-14-14-14-15-15-15-17~~-15-17-17s-17--15-----------------------------------|
A|---------------------------------------------------------------------------|
E|---------------------------------------------------------------------------|

e|---------------------------------------------------------------------------|
B|---------------------------------------------------------------------------|
G|---------------------------------------------------------------------------|
D|-14-14-14-15-15-15-17~~-15-17-17s-17---------------------------------------|
A|---------------------------------------------------------------------------|
E|---------------------------------------------------------------------------|


************************************

| /   slide up
| \   slide down
| h   hammer-on
| p   pull-off
| ~   vibrato
| +   harmonic
| x   Mute note
| b   Bend
| pb  Pre-bend
| br  Bend release
| pbr Pre-bend release
| brb Bend release bend

************************************

Comment this song and these guitar tabs

Do you have corrections, comments on the guitar tabs, thoughts about the song or a message to the author? Write them below.