Guitar Tabs Explorer
Hunny bass tabs for Vowels and the importance of being me

Vowels And The Importance Of Being Me bass tab


Be the first to rate

Vowels And The Importance Of Being Me bass tab by Hunny

Bass tabs

Print
Vowels (And The Importance of Being Me)
by HUNNY

(The 4's in the Pre-Chorus might actually be 6's on the G string. I couldn't really tell)


Intro: (0:06)

G|----------------------------|
D|-----------4-2--2-----------|
A|---------2---------4-4--2h1-|
E|-4-4--2h4-------------------|


Verse 1: (0:13)

G|---------------------------|
D|---------------------------|
A|---------2---------4-4---2-|
E|-4-4--2h4--2-0--0----------|

G|-------------------------|
D|-------------------------|
A|---------2---------4-4---|
E|-4-4--2h4--2-0--0--------|

G|----------------------------|
D|-----------4-2--2-----------|
A|---------2---------4-4--2h1-|
E|-4-4--2h4-------------------|

G|-------------------------|
D|-----------4-2--2--------|
A|---------2---------4-4---|
E|-4-4--2h4----------------|


Pre-Chorus: (0:38)

G|--------6h8----|
D|-------6-------|x2
A|-6\---------7--|
E|----0----------|

G|---------------|
D|---------------|
A|-4-4-4-4-4-4-4-|
E|---------------|


Chorus: (1:03)

G|-------------------------|
D|-------------------------|
A|---------9(x8)--7(x16)---|
E|-7(x8)-------------------|

G|-------------------------|
D|-------------------------|
A|-------------------------|
E|-7(x8)--11(x8)--0(x16)---|


Verse 2: (1:16)

G|---------------------------------------------------------------|
D|--------------------------------2-2-2-2-2-2-2-2-2--------------|
A|-------------------2-2-2-2-2-2-2-----------------4-4-4-4-2-4-2-|
E|-4-4-4-4-4-4-4-4-4---------------------------------------------|

G|----------------------------------------|
D|----------------------------------------|
A|------------------2-2-2-2-2-2-2----4-4\-|
E|-4-4-4-4-4-4-4-4-4----------------------|


Pre-Chorus: (1:29)

G|--------6h8----|
D|-------6-------|x2
A|-6\---------7--|
E|----0----------|

G|---------------|
D|---------------|
A|-4-4-4-4-4-4-4-|
E|---------------|


Chorus 2: (1:41)

G|-------------------------|
D|-------------------------|
A|---------9(x8)--7(x16)---|
E|-7(x8)-------------------|

G|-------------------------|
D|-------------------------|
A|-------------------------|
E|-7(x8)--11(x8)--0(x16)---|

G|------------------------|
D|------------------------|
A|------------------------|
E|-7(x8)--2(x8)--0(x16)---|

G|--------------------------|
D|--------------------------|
A|--------------------------|
E|-7(x8)--11(x8)--12(x16)---|


Bridge: (2:11)

G|----------------------------------4h6-------------|
D|-------------------6(x8)-4(x13)-6-----------------|
A|----------2-4(x8)--------------------6\-------6-7-|
E|-2(x13)-4--------------------------------0--------|


Chorus 3: (2:39)

G|------------------------|
D|------------------------|
A|------------------------|
E|-7(x8)--2(x8)--0(x16)---|

G|--------------------------|
D|--------------------------|
A|--------------------------|
E|-7(x8)--11(x8)--12(x16)---|

G|---------|
D|---------|
A|-6\------|
E|----0----|


************************************
| h   Hammer-on
| \   Slide down

Comment this song and these bass tabs

Do you have corrections, comments on the bass tabs, thoughts about the song or a message to the author? Write them below.