Guitar Tabs Explorer
Hunny bass tabs for Televised

Televised bass tab


Be the first to rate

Televised bass tab by Hunny

Bass tabs

Print

Intro:
G|----------------------------------------------------------------------|
D|------------------------------------10-8--------------------------3-3-|
A|-11--11-11-10-11--11-11-10-11~---10-------8--8-8-6-8--8-8-6\----------|
E|-------------------------------------------------------------1~-------| (x2)

Verse 1:
(0:18)
G|------------------------------------------------------------------------|
D|------------------------------------10-8--------------------------/10-8-|
A|-11--11-11-10-11--11-11-10-11~---10-------8--8-8-6-8--8-8-6\------------|
E|-------------------------------------------------------------1~---------|

G|----------------------------------------------------|
D|----------------------------------------------------|
A|-6--6--6-6-6--3--3--3-3-3--6--6--6-6-6--------------|
E|----------------------------------------6--6--6-6-6-|

Pre-Chorus:
(0:36)
G|------------/8-6-5-------------------------|
D|-------------------8-----------------------|
A|--------------------------4--4-4-4-4-4-4-4-|
E|-1---3--4----------------------------------|

G|------------/8-6-5----------------------|
D|-3---5--6----------8--------------------|
A|--------------------------4--4-4-4-4-4\-|
E|----------------------------------------|

Chorus:
(0:53)
G|--------------------------------------------------------------------|
D|--------------------------------------------------------------------|
A|-----------------------------------6-6-6-6-6-6--3-3-3-3-3-3-3-3-3-3-|
E|-1-1-1-1-1-1--4-4-4-4-4-4-4-4-4-4-----------------------------------| (x2)

G|--------------------------------------------------------------------|
D|-----------------------------------6-6-6-6-6-6----------------------|
A|-1-1-1-1-1-1--4-4-4-4-4-4-4-4-4-4---------------3-3-3-3-3-3-3-3-3-3-|
E|--------------------------------------------------------------------| (x2)

G|----------|
D|----------|
A|-1~---/6~-|
E|----------|

Post-Chorus:
(1:26)
G|-------------------------------------------------------------------------|
D|------------------------------------10-8--------------------------/6-5-3-|
A|-11--11-11-10-11--11-11-10-11~---10-------8--8-8-6-8--8-8-6\-------------|
E|-------------------------------------------------------------1~----------|

G|---------------------------------------------------------------------------|
D|------------------------------------10-8--------------------------/6-5-3-5-|
A|-11--11-11-10-11--11-11-10-11\---10-------8--8-8-6-8--8-8-6\---------------|
E|-------------------------------------------------------------1~------------|

Verse 2:
(1:44)
G|------------------------------------------------------------------------|
D|------------------------------------10-8--------------------------/10-8-|
A|-11--11-11-10-11--11-11-10-11~---10-------8--8-8-6-8--8-8-6\------------|
E|-------------------------------------------------------------1~---------|

G|----------------------------------------------------|
D|----------------------------------------------------|
A|-6--6--6-6-6--3--3--3-3-3--6--6--6-6-6--------------|
E|----------------------------------------6--6--6-6-6-|

Pre-Chorus 2:
(2:02)
(no bass at this part of the song)

Chorus:
(2:10)
G|--------------------------------------------------------------------|
D|--------------------------------------------------------------------|
A|-----------------------------------6-6-6-6-6-6--3-3-3-3-3-3-3-3-3-3-|
E|-1-1-1-1-1-1--4-4-4-4-4-4-4-4-4-4-----------------------------------| (x2)

G|--------------------------------------------------------------------|
D|-----------------------------------6-6-6-6-6-6----------------------|
A|-1-1-1-1-1-1--4-4-4-4-4-4-4-4-4-4---------------3-3-3-3-3-3-3-3-3-3-|
E|--------------------------------------------------------------------| (x2)

G|----------|
D|----------|
A|-1~---/6~-|
E|----------|

Ending:
(2:46)
G|-------------------------------------------------------------------------|
D|------------------------------------10-8--------------------------/6-5-3-|
A|-11--11-11-10-11--11-11-10-11~---10-------8--8-8-6-8--8-8-6\-------------|
E|-------------------------------------------------------------1~----------|

G|---------------------------------------------------------------------------|
D|------------------------------------10-8--------------------------/5-6-8-5-|
A|-11--11-11-10-11--11-11-10-11\---10-------8--8-8-6-8--8-8-6\---------------|
E|-------------------------------------------------------------1~------------|

(kinda fades out on this last one. This is how I like to end it though.)
G|---------------------------------------------------------------------|
D|------------------------------------10-8-------------------------6-6-|
A|-11--11-11-10-11--11-11-10-11~---10-------8--8-8-6-8--8-8-6\---------|
E|-------------------------------------------------------------1~------|


***********************************

| /   Slide up
| \   Slide down
| ~   Hold Note

Comment this song and these bass tabs

Do you have corrections, comments on the bass tabs, thoughts about the song or a message to the author? Write them below.