Guitar Tabs Explorer
Hunny bass tabs for Gilding the lily

Gilding The Lily bass tab


Be the first to rate

Gilding The Lily bass tab by Hunny

Bass tabs

Print

Intro:
(0:12)
G|----------------------------------------------------|
D|----------------------------------------------------|
A|-6-6-6-6-6-6-6-6--8-8-8-8--3-3-3-3-3-3-3-3----------|
E|--------------------------------------------6-6-6-6-|

G|---------------------------------------------------|
D|---------------------------------------------------|
A|-6-6-6-6-6-6-6-6--8-8-8-8--3-3-3-3-3-3-3-3-3-3-3-3-|
E|---------------------------------------------------|

Verse 1:
(0:22)
G|---------------------------------------------------------|
D|--------------------5-6-6--5--------------------5--------|
A|-3-3--3-3-3--3-3-3-----------6-6--6-6-6--6-6-6-----------|
E|--------------------------------------------------6-6--6-| (x2)

Pre-Chorus 1:
(0:34)
G|--------------------------------------------------------------------|
D|--------------------------6-6-6-6---------------------------3-5-3---|
A|-3-3-3-3-3-3-3-3-3-3-3-3-----------6-6-6-6-6-6-6-6-6-6-6-6--------6-|
E|--------------------------------------------------------------------|

G|----------------------------------|
D|--------------------------6-6-6-6-|
A|-3-3-3-3-3-3-3-3-3-3-3-3----------|
E|----------------------------------|

Chorus:
(0:46)
G|------------------------------------------------------------------------------------------------|
D|------------------------------------------------------------------------------------------------|
A|----------------------------------6-6-6-6-6-6-6-6-6-6-6-6-6-6-6-6-----3--3-3-3-3-3-3-3--1-1-1-1-|
E|-4-4-4-4-4-4-4-4-4-4-4-4-4-4-4-4----------------------------------1-----------------------------|

G|-------------------------------|
D|-1-1-1-1-1-1-1-1-1-1-1-5--3----|
A|-----------------------------6-|
E|-------------------------------|

G|---------------------------------------------------------------------------------------------------|
D|-------------------------------------------------------------------3-3-5---------------------------|
A|----------------------------------6-6-6-6-6-6-6-6-6-6-6-6-6-6-6-6--------3--3-3-3-3-3-3-3--1-1-1-1-|
E|-4-4-4-4-4-4-4-4-4-4-4-4-4-4-4-4-------------------------------------------------------------------|

G|---------------------------------|
D|-1-1-1-1-1-1-1-1-1-1-1-1-1-1-1-1-|
A|---------------------------------|
E|---------------------------------|

Solo:
(1:10)
G|---------------------------------------------------------|
D|--------------------5-6-6--5--------------------5--------|
A|-3-3--3-3-3--3-3-3-----------6-6--6-6-6--6-6-6-----------|
E|--------------------------------------------------6-6--6-|

G|--------------------------------------------------------------|
D|-------------------------6-6-6-6---------------------5--------|
A|-3-3-3--3-3-3-3-3-3-3-3-----------6-6--6-6-6--6-6-6-----------|
E|-------------------------------------------------------6-6--6-|

Verse 2:
(1:22)
G|---------------------------------------------------------|
D|--------------------5-6-6--5--------------------5--------|
A|-3-3--3-3-3--3-3-3-----------6-6--6-6-6--6-6-6-----------|
E|--------------------------------------------------6-6--6-| (x2)

Pre-Chorus 2:
(1:34)
G|----------------------------------------------------------------------|
D|----------------------------------------------------------------------|
A|-3-3-3-3-3-3-3-3-3-3-3-3-----------6-6-6-6-6-6-6-6-6-6-6-6--5h6-5---5-|
E|--------------------------4-4-4-4---------------------------------6---|

G|----------------------------------|
D|----------------------------------|
A|-3-3-3-3-3-3-3-3-3-3-3-3----------|
E|--------------------------4-4-4-4-|

Chorus:
(1:46)
G|------------------------------------------------------------------------------------------------|
D|------------------------------------------------------------------------------------------------|
A|----------------------------------6-6-6-6-6-6-6-6-6-6-6-6-6-6-6-6-----3--3-3-3-3-3-3-3--1-1-1-1-|
E|-4-4-4-4-4-4-4-4-4-4-4-4-4-4-4-4----------------------------------1-----------------------------|

G|-------------------------------|
D|-1-1-1-1-1-1-1-1-1-1-1-5--3----|
A|-----------------------------6-|
E|-------------------------------|

G|---------------------------------------------------------------------------------------------------|
D|-------------------------------------------------------------------3-3-5---------------------------|
A|----------------------------------6-6-6-6-6-6-6-6-6-6-6-6-6-6-6-6--------3--3-3-3-3-3-3-3--1-1-1-1-|
E|-4-4-4-4-4-4-4-4-4-4-4-4-4-4-4-4-------------------------------------------------------------------|

G|---------------------------------|
D|-1-1-1-1-1-1-1-1-1-1-1-1-1-1-1-1-|
A|---------------------------------|
E|---------------------------------|

Bridge:
(2:19)
G|--------------------------------------------------|
D|--------------------------------------------------|
A|-6-6--6-6-6-6-6--8-8-8-8--3-3-3-3-3-3-3-3---------|
E|------------------------------------------6-6-6-6-|

G|----------------------------------------------------|
D|----------------------------------------------------|
A|-6-6-6-6-6-6-6-6--8-8-8-8--3-3-3-3-3-3-3-3----------|
E|--------------------------------------------6-6-6-6-|

Chorus/Outro:
(2:29)
G|-------------------------------------------------------------------------------------------------|
D|-------------------------------------------------------------------------------------------------|
A|----------------------------------6-6-6-6-6-6-6-6-6-6-6-6-6-6-6-6-----1-3-3-3-3-3-3-3-3--1-1-1-1-|
E|-4-4-4-4-4-4-4-4-4-4-4-4-4-4-4-4-----------------------------------1-----------------------------|

G|---------------------------------|
D|---------------------------------|
A|-6-6-6-6-6-6-6-6-6-6-6-6-6-6-6-6-|
E|---------------------------------|

G|-----------------------------------------------------------------------------------|
D|-----------------------------------------------------------------------------------|
A|-11-11-11-11-11-11-11-11-11-11-11-11-11-11-11-11\--6-6-6-6-6-6-6-6-6-6-6-6-6-6-6-6-|
E|-----------------------------------------------------------------------------------|

G|---------------------------------|
D|---------------------------------|
A|---------------------------------|
E|-4-4-4-4-4-4-4-4-4-4-4-4-4-4-4-4-|

G|--------------------------------------------------------------------------------|
D|--------------------------------------------------------------------------------|
A|-6~-------8~---3~------------6-6-6-6-6-6-6-6--8-8-8-8--3-3-3-3-3-3-3-3----------|
E|------------------------6~----------------------------------------------6-6-6-6-|


***********************************

| \   Slide down
| h   Hammer-on
| ~   Hold Note

Comment this song and these bass tabs

Do you have corrections, comments on the bass tabs, thoughts about the song or a message to the author? Write them below.