Guitar Tabs Explorer
Hunny bass tabs for Cry for me

Cry For Me bass tab


Be the first to rate

Cry For Me bass tab by Hunny

Bass tabs

Print
Cry for Me
By HUNNY

Tuning: Standard EADG

Intro (0:03)
G|--------------------------------------------------------------------|
D|--------------------------------------------------------------------|
A|--------------------------------------------------------------------|
E|-5-7--7--7--7--7-5-2--2--2/14--12--12--12--12-10-12--12--12--7h10-5-|

G|--------------------------------------------------------------|
D|--------------------------------------------------------------|
A|--------------------------------------------------------------|
E|-7--7--7--7-5-2--2--2/14--12--12--12--12-10-12--12--12--7h10*-|

*(continue straight to Verse 1. As if it was -7h10-5/7-)


Verse 1 (0:19)
G|-------------11------9------9-----|
D|-----9----------------------------|
A|---------7/9-----5/7------7-------|
E|-5/7------------------------------|  x2

G|------------------11-------9------9--|
D|----------9--------------------------|
A|--------------7/9-----9--7----5/7----|
E|-7h10-5/7----------------------------|

G|------------------11-------9------9~---|
D|----------9----------------------------|
A|--------------7/9-----9--7------7------|
E|-7h10-5/7------------------------------|


Chorus (0:52)
G|--------------------------------------------------------------|
D|--------------------------------------------------------------|
A|--------------------------------------------------------------|
E|-7h10-5/7--7--7--7-5-2--2--2/14--12--12--12--12-10-12--12--12-| x2


Verse 2 (1:10)
G|------------------11~------9~---------|
D|----------9~--------------------------|
A|--------------7/9------5/7------------|
E|-7h10-5/7-----------------------------|

G|-------------11~------9~---------|
D|-----9~--------------------------|
A|---------7/9~-----5/7~-----------|
E|-5/7-----------------------------|

G|------------------11---------9---------9--|
D|----------9-------------------------------|
A|--------------7/9-------9--7------5/7-----|
E|-7h10-5/7---------------------------------|

G|------------------11---------9------------|
D|----------9-------------------------------|
A|--------------7/9-------9--7------7~------|
E|-7h10-5/7---------------------------------|


Chorus x4 (1:42)


Bridge (2:16)
G|--------------------------------------9-|
D|----------------------------------------|
A|------------9-10-12~--12-10-9-7~--5/7---|
E|-7h10-5-7~------------------------------|

G|---------------------------------|
D|---------------------------------|
A|-----9-10-12~--12-10-9-7~--5-7~--|
E|-7~------------------------------|

G|--------------------------------------9-|
D|----------------------------------------|
A|------------9-10-12~--12-10-9-7~--5/7---|
E|-7h10-5-7~------------------------------|

G|-----------------------------------|
D|-----------------------------------|
A|------------9-10-12~--12-10-9-7~---|
E|-7h10-5-7~-------------------------|


End (2:49)
G|----------------------------------------------------------|
D|-----9----------------------------------------------------|
A|----------------------------------------------------------|
E|-5/7---7--7--7-5-2--2--2/14--12--12--12--12-10-12--12--12-|

G|--------------------------------------------------------------|
D|--------------------------------------------------------------|
A|--------------------------------------------------------------|
E|-7h10-5/7--7--7--7-5-2--2--2/14--12--12--12--12-10-12--12--12-|

G|---------------------------------------------------|
D|---------------------------------------------------|
A|---------------------------------------------------|
E|-7h10-5/7~~~x-2~~/14~~12--12--12--12-10-12--12--12-|

G|---------------------------------------------------|
D|---------------------------------------------------|
A|---------------------------------------------------|
E|-7h10-5/7~~~~-2~~/14~~12--12--12--12-10-12--12--12-|

G|--------------------------------------9~-|
D|-----------------------------------------|
A|------------9-10-12~--12-10-9-7~--5/7----|
E|-7h10-5/7~-------------------------------|



Thanks for playing! Hope you enjoyed it!


| /  slide up
| \  slide down
| h  hammer-on
| ~  let note ring

Comment this song and these bass tabs

Do you have corrections, comments on the bass tabs, thoughts about the song or a message to the author? Write them below.