Log in

One click and you are in

Login with Facebook Login with Google

Why sign up and log in

Guitar Tabs Explorer
Charlie Hill guitar tabs for Marvelous light

Intro

Intro:

e|------------5---------------------------------------5----------------------|
B|----------------8----------------------------------------8-----------------|
G|-4h5slide7-----------7~~-----5-4h5s7-----4h5slide7-----------7~~~~~~-------|
D|---------------------------------------------------------------------------|
A|---------------------------------------------------------------------------|
E|---------------------------------------------------------------------------|

e|--------------7~---7p5--5------------------------------5-------------------|
B|------------------------------8----------------------------12--------------|
G|-4h5slide7---------------------------7-----4h5slide7-----------7~~---------|
D|---------------------------------------------------------------------------|
A|---------------------------------------------------------------------------|
E|---------------------------------------------------------------------------|

Pre-Chorus: x2

e|---------------------------------------------------------------------------|
B|----2----------------------------3-----------------------------------------|
G|----2-------------0--------------0-----------------------------------------|
D|----0-------------2--------------0-----------------------------------------|
A|----3------3------3------3-------3------3-------3--------------------------|
E|----3---3------3--3--3-------3---3---3------3-------3----------------------|


Chorus:

A chord diagramG MajorG      C2     A chord diagramE minor 7Em7        A chord diagramD MajorD        C2


Outro:

No guitar


Order of the song:


Chorus, -Intro, Verse 1, -Pre-Chorus, -Chorus,
-First Line of Intro Instrumental:, Verse 2,
-Pre-Chorus, -Double Chorus, -Double Bridge (Light Chords),

Pre-Chorus, Double Chorus, Bridge


************************************

| h  Hammer-on
| p  Pull-off
| ~  Vibrato
| s  Slide

Almost there ...

Sign in to get your own page with links to favourite songs and more. You are just one click away...

Login with Facebook Login with Google