Log in

One click and you are in

Login with Facebook Login with Google

Why sign up and log in

Guitar Tabs Explorer
Jimi Hendrix tabs for Fire1

Guitar tabs

riff a
e---------------------------------------------------------------
b---------------------------------------------------------------
g------13--12----/12--------------------------------------------------
d---------------------12--12----------------------------------------
a------11--10----/10-------------------------------------------------
E---------------------10--10--------------------------------------
 play that 2x's

riff b
e------------------------------------
b-------------------------------------
g---------------------------------------
d--------10-12-12---------------------------
a-----12---------------------------------
E-----------------------------------------
play that acouole of times

  the solo is pretty easy i got the hang of it
this song is one of Jimis easier (and thats very rare)

e----------------------------------------
b--15b-15b-15b-----------15b-15b-15b-----------------------
g--------------12~-------------------15p12------
d-----------------------------------------
a----------------------------------------
E------------------------------------------

e-----------15b----------------------------------
b---15b-15b-------12~---------------------------------
g---------------------------------------------
d-----------------------------------------------
a--------------------------------------------------
E--------------------------------------------------

after the solo go back to riff A chord diagramA augmentedA and play that 4x

thats the solo ill get the chorus in later

Other versions of Fire1

FirepileChords
FireTabs
FirepileTabs

Almost there ...

Sign in to get your own page with links to favourite songs and more. You are just one click away...

Login with Facebook Login with Google