Log in

One click and you are in

Login with Facebook Login with Google

Why sign up and log in

Guitar Tabs Explorer
Helmet bass tabs for The silver hawaiian

Bass tabs

The Silver Hawaiian.btab
Helmet
TablEdited by Poppamies

Tuning : B E A D G 	Time Signature: 4/4

 |    |    |    |    |    |    |    |
|2-------0-------1-------1-------|2-------0-------1-------1-------|
|------4-------------------------|------4-------------------------|
|--------------------------------|--------------------------------|
|--------------------------------|--------------------------------|
|--------------------------------|--------------------------------|

 |    |    |    |    |    |    |    |
|2-------0-------1-------1-------|2-------0-------1-------1-------|
|------4-------------------------|------4-------------------------|
|--------------------------------|--------------------------------|
|--------------------------------|--------------------------------|
|--------------------------------|--------------------------------|

 |    |    |    |    |    |    |    |
|2-------0-------1-------1-------|2-------0-------1-------1-------|
|------4-------------------------|------4-------------------------|
|--------------------------------|--------------------------------|
|--------------------------------|--------------------------------|
|--------------------------------|--------------------------------|

 |    |    |    |    |    |    |    |
|2-------0-------1-------1-------|2-------0-------1-------1-------|
|------4-------------------------|------4-------------------------|
|--------------------------------|--------------------------------|
|--------------------------------|--------------------------------|
|--------------------------------|--------------------------------|

 |    |    |    |    |    |    |    |
|--------------------------------|--------------------------------|
|--------------------------------|--------------------------------|
|--------------------------------|--------------------------------|
|2-------0-----2---------2-------|0-----2---------2-------0-----2-|
|--------------------------------|--------------------------------|

 |    |    |    |    |    |    |    |
|--------------------------------|--------------------------------|
|--------------------------------|--------------------------------|
|--------------------------------|--------------------------------|
|0-------2-------0-----2---------|2---------------0-------2-----0-|
|--------------------------------|--------3-----------------------|

 |    |    |    |    |    |    |    |
|--------------------------------|--------------------------------|
|--------------------------------|--------------------------------|
|--------------------------------|--------------------------------|
|--------2-----0-2-------------2-|2-------0-----2---------2-------|
|--------------------------------|--------------------------------|

 |    |    |    |    |    |    |    |
|--------------------------------|--------------------------------|
|--------------------------------|--------------------------------|
|--------------------------------|--------------------------------|
|0-----2---------2-------------2-|3-----------2---4-------3-------|
|------------------------3-------|--------3-----------------------|

 |    |    |    |    |    |    |    |
|--------------------------------|--------------------------------|
|--------------------------------|--------------------------------|
|--------------------------------|--------------------------------|
|2-------0-----2---------2-------|0-----2---------2-------0-----2-|
|--------------------------------|--------------------------------|

 |    |    |    |    |    |    |    |
|--------------------------------|--------------------------------|
|--------------------------------|--------------------------------|
|--------------------------------|------ j. n.e    ----------|
|0-------2-------0-----2---------|--------------------------------|
|--------------------------------|--------------------------------|
http://www.geocities.com/jani_bjorklund/janis.html

Almost there ...

Sign in to get your own page with links to favourite songs and more. You are just one click away...

Login with Facebook Login with Google