Log in

One click and you are in

Login with Facebook Login with Google

Why sign up and log in

Guitar Tabs Explorer
Stu Hamm bass tabs for Linus and lucy

Bass tabs with lyrics

Ok all, here it is for your bass-enjoyment. The linus and
Lucy theme as played by Stu Hamm.
	A couple of notes: all of the G-string notes are played with
the right hand. Except for the part marked "Slap". The little `---'
things under the measures are ties. Sorry about the G-String tab being
so close together. Any other questions, feel free to mail me.

							Webb
+-------------------------------+---------------+-------------------------+
|  ___  ____         | Factor Hartke | webb@chopin.udel.edu  |
| ( `--' .-'     ___  | Samson GHS  | Webb Pickersgill    |
| |8) O O ||||||||||||||[_-~) | Ibanez A.R.T. | (302) 837-1861     |
| (__.--.__| Kubicki Factor  |  Digitech  | Bassist For:Seven Wishes|
+-------------------------------+---------------+-------------------------+
	           LINUS AND LUCY

+------------------|----------------|-------------------|---------------+
|-----5-----5------|----------------|-----5-----5-------|---------------|
|---5-----5--------|---5-7---5-7----|---5-----5---------|---5-7---5-7---|
+-3-----3--------3-|-3-----3------3-|-3-----3---------3-|-3-----3-----3-+
--'       `---'      `---'        `---'      `---

+-121416--161412-14|14-----12-----12|-121416--16--------|---------------+
|-----5-----5------|----------------|-----5-----5-------|---------------|
|---5-----5--------|---5-7---5-7----|---5-----5---------|---5-7---5-7---|
+-3-----3--------3-|-3-----3------3-|-3-----3---------3-|-3-----3-----3-+
--'       `---'      `---'        `---'      `---

+-121416--161412-14|14-----12-----12|-12----1414--------|---------------+
|-----5-----5------|----------------|-----8-----8-------|---------------|
|---5-----5--------|---5-7---5-7----|---8-----8---------|---8-10--8-10--|
+-3-----3--------3-|-3-----3------6-|-6-----6---------6-|-6-----6-----3-+
--'       `---'      `---'        `---'      `---

+-12----1414-------|----------------|-5---5---5---7-----+
|-----5-----5------|----------------|-5---5---5---7-----|
|---5-----5--------|---5-7---5-7----|-3---3---3---5-----|
+-3-----3--------3-|-3-----3------3-|-------------------+
--'       `---'       Slap:

+-12----------12----------12------------|-5---5---5---7----------+
|-12/14-14-14-12/14-14-14-12/14-14-14---|-5---5---5---7----------|
|---------------------------------------|-3---3---3---5----------|
+-------------------------------------3-|------------------------+

+-12----------12----------12------------+
|-12/14-14-14-12/14-14-14-12/14-14-14---|
|---------------------------------------|
+-------------------------------------3-+
                   `---

Almost there ...

Sign in to get your own page with links to favourite songs and more. You are just one click away...

Login with Facebook Login with Google