Guitar Tabs Explorer
Guns N' Roses bass tabs for Sweet child o mine

Sweet Child O Mine bass tab


5 / 5 [3 votes]

Sweet Child O Mine bass tab by Guns N' Roses

Bass tabs with lyrics

Print
Bass Tab for the interesting intro bit
Off the Album "Appetite for Destruction"

Tabbed By Laurie Kennedy

I really like this cool bit at the start of the song,
so I thought I’d try and work it out.  I actually play Lead guitar
(Although I am fairly novice), but I figured it out on my mates Bass.

Oh yeah, GNR play tuned down half a step, but since I don’t,
I tabbed it for standard tuning.

At the start the guitar goes for a few bars, then this starts up...
These measures are actually 2 bars worth of music each (I think)


G:|---------------------------|---------------------------|
D:|---------------------------|---------------------------|
A:|---------------------------|------------------------11-|
E:|---------------------------|---------------------------|

G:|-----10-------------10--11-|-13-15-13-11-10------------|
D:|-11--------------11--------|----------------11---------|
A:|---------------------------|------------------------11-|
E:|---------------------------|---------------------------|

G:|-------11------------------|-9-8-----9-8---------------|
D:|--9----------------------9-|-----6-------6-------------|
A:|---------------------------|---------------------------|
E:|---------------------------|-------------------------9-|

G:|---------------------------|-11------------------------|
D:|-----------------------11--|------------------------11-|
A:|-9-------------------------|---------------------------|
E:|---------------------------|---------------------------|

G:|-11-10------11-10----------|---------------------------|
D:|-------11---------11-------|---11-11-11-11-11-11-11----|
A:|---------------------------|---------------------------|
E:|---------------------------|---------------------------|


After this it goes into the general Db B F# Db verses,
and the Ab F# Db Db chorus.

Other versions of Sweet Child O Mine

- Sweet child o mine (Ver. 2)Bass tabs

Comment this song and these bass tabs

Do you have corrections, comments on the bass tabs, thoughts about the song or a message to the author? Write them below.