Guitar Tabs Explorer
Gorillaz bass tabs for Humility

Humility bass tab


Be the first to rate

Humility bass tab by Gorillaz

Bass tabs

Print

Tuning: Standard (E A D G)

Key: C

Difficulty: Novice

Intro:

   1 ^ + ^ 2 ^ + ^ 3 ^ + ^ 4 ^ + ^   1 ^ + ^ 2 ^ + ^ 3 ^ + ^ 4 ^ + ^
G|---------------------------------|---------------------------------|
D|---------------------------------|---------------------------------|
A|---------------------------------|---------------------------------|
E|-3-------3-----5-----------------|-3-------3-----5-----------------|

   1 ^ + ^ 2 ^ + ^ 3 ^ + ^ 4 ^ + ^   1 ^ + ^ 2 ^ + ^ 3 ^ + ^ 4 ^ + ^
G|---------------------------------|---------------------------------|
D|---------------------------------|---------------------------------|
A|---------------------------------|---------------------------------|
E|-3-------3-----0-----------------|-3-------3-----0-----0---0---0---|

Verse:
                                                                       _
   1 ^ + ^ 2 ^ + ^ 3 ^ + ^ 4 ^ + ^   1 ^ + ^ 2 ^ + ^ 3 ^ + ^ 4 ^ + ^    |
G|---------------------------------|---------------------------------|  |
D|---------------------------------|---------------------------------|  |
A|---------------------------------|---------------------------------|  |
E|-3-------3-----5-----------------|-3-------3-----5-----------------|   \ x 2
                                                                         /
   1 ^ + ^ 2 ^ + ^ 3 ^ + ^ 4 ^ + ^   1 ^ + ^ 2 ^ + ^ 3 ^ + ^ 4 ^ + ^    |
G|---------------------------------|---------------------------------|  |
D|---------------------------------|---------------------------------|  |
A|---------------------------------|---------------------------------|  |
E|-3-------3-----0-----------------|-3-------3-----0-----0---0---0---| _|

   1 ^ + ^ 2 ^ + ^ 3 ^ + ^ 4 ^ + ^   1 ^ + ^ 2 ^ + ^ 3 ^ + ^ 4 ^ + ^
G|---------------------------------|---------------------------------|
D|---------------------------5h7---|---------------------------------|
A|---------------------------------|---------------------------------|
E|-3-------3-----5---------------0-|-3-------3-----5-----------------|

   1 ^ + ^ 2 ^ + ^ 3 ^ + ^ 4 ^ + ^   1 ^ + ^ 2 ^ + ^ 3 ^ + ^ 4 ^ + ^
G|---------------------------------|---------------------------------|
D|---------------------------------|---------------------------------|
A|---------------------------------|---------------------------------|
E|-3-------3-----0---------------0-|-3-------3-----0-----0---0---0---|


Chorus:

   1 ^ + ^ 2 ^ + ^ 3 ^ + ^ 4 ^ + ^   1 ^ + ^ 2 ^ + ^ 3 ^ + ^ 4 ^ + ^
G|---------------------------------|---------------------------------|
D|---------------------------5h7---|---------------------------------|
A|---------------------------------|--------------/7---5-------------|
E|-------------------------------0-|-3-------3-------------3---5-7---|

   1 ^ + ^ 2 ^ + ^ 3 ^ + ^ 4 ^ + ^   1 ^ + ^ 2 ^ + ^ 3 ^ + ^ 4 ^ + ^
G|---------------------------------|---------------------------------|
D|---------------------------------|---------------------------------|
A|---------------------------------|---------------------------------|
E|-3-------3-----0-----------------|-3-------3-----0-----0---0---0---|

   1 ^ + ^ 2 ^ + ^ 3 ^ + ^ 4 ^ + ^   1 ^ + ^ 2 ^ + ^ 3 ^ + ^ 4 ^ + ^
G|---------------------------------|---------------------------------|
D|---------------------------------|---------------------------5h7---|
A|---------------------------------|---------------------------------|
E|-3-------3-----5---------------0-|-3-------3-----5---------------0-|

   1 ^ + ^ 2 ^ + ^ 3 ^ + ^ 4 ^ + ^   1 ^ + ^ 2 ^ + ^ 3 ^ + ^ 4 ^ + ^
G|---------------------------------|---------------------------------|
D|---------------------------------|---------------------------------|
A|---------------------------------|---------------------------------|
E|-3-------3-----3-----------------|-3-------3-----0-----0---0---0---|


Verse:

   1 ^ + ^ 2 ^ + ^ 3 ^ + ^ 4 ^ + ^   1 ^ + ^ 2 ^ + ^ 3 ^ + ^ 4 ^ + ^
G|---------------------------------|---------------------------------|
D|---------------------------------|---------------------------------|
A|---------------------------------|---------------------------------|
E|-3-------3-----5-----------------|-3-------3-----5-----------------|

   1 ^ + ^ 2 ^ + ^ 3 ^ + ^ 4 ^ + ^   1 ^ + ^ 2 ^ + ^ 3 ^ + ^ 4 ^ + ^
G|---------------------------------|---------------------------------|
D|---------------------------------|---------------------------------|
A|---------------------------------|---------------------------------|
E|-3-------3-----0-----------------|-3-------3-----0-----0---0---0---|

   1 ^ + ^ 2 ^ + ^ 3 ^ + ^ 4 ^ + ^   1 ^ + ^ 2 ^ + ^ 3 ^ + ^ 4 ^ + ^
G|---------------------------------|---------------------------------|
D|---------------------------------|---------------------------5h7---|
A|---------------------------------|---------------------------------|
E|-3-------3-----5-----------------|-3-------3-----5---------------0-|

   1 ^ + ^ 2 ^ + ^ 3 ^ + ^ 4 ^ + ^   1 ^ + ^ 2 ^ + ^ 3 ^ + ^ 4 ^ + ^
G|---------------------------------|---------------------------------|
D|---------------------------------|---------------------------------|
A|---------------------------------|---------------------------------|
E|-3-------3-----3-----------------|-3-------3-----0-----------------|


Chorus:

   1 ^ + ^ 2 ^ + ^ 3 ^ + ^ 4 ^ + ^   1 ^ + ^ 2 ^ + ^ 3 ^ + ^ 4 ^ + ^
G|---------------------------------|---------------------------------|
D|---------------------------5h7---|---------------------------------|
A|---------------------------------|--------------/7---5-------------|
E|-15\---------------------------0-|-3-------3-------------3---5-7---|

   1 ^ + ^ 2 ^ + ^ 3 ^ + ^ 4 ^ + ^   1 ^ + ^ 2 ^ + ^ 3 ^ + ^ 4 ^ + ^
G|---------------------------------|---------------------------------|
D|---------------------------------|---------------------------------|
A|---------------------------------|---------------------------------|
E|-3-------3-----0-----------------|-3-------3-----0-----0---0---0---|

   1 ^ + ^ 2 ^ + ^ 3 ^ + ^ 4 ^ + ^   1 ^ + ^ 2 ^ + ^ 3 ^ + ^ 4 ^ + ^
G|---------------------------------|---------------------------------|
D|---------------------------------|---------------------------5h7---|
A|---------------------------------|---------------------------------|
E|-3-------3-----5---------------0-|-3-------3-----5---------------0-|

   1 ^ + ^ 2 ^ + ^ 3 ^ + ^ 4 ^ + ^   1 ^ + ^ 2 ^ + ^ 3 ^ + ^ 4 ^ + ^
G|---------------------------------|---------------------------------|
D|---------------------------------|---------------------------------|
A|---------------------------------|---------------------------------|
E|-3-------3-----3-----------------|-3-------3-----0-----0---0---3---|


Bridge: - (Not 100% sure about the open G in the 3rd and 4th bars; not playing it sounds just fine)

   1  ^  +  ^  2  ^  +  ^  3  ^  +  ^  4  ^  +  ^    1  ^  +  ^  2  ^  +  ^  3  ^  +  ^  4  ^  +  ^
G|----------12----12----10----10----10----10----9--|----9-----9-----9-----10----10----9-----9-------|
D|-10----10----10----10----10----10----10----10----|-10----10----10----10----10----10----10----10\--|
A|-------------------------------------------------|------------------------------------------------|
E|-------------------------------------------------|------------------------------------------------|

   1  ^  +  ^  2  ^  +  ^  3  ^  +  ^  4  ^  +  ^    1  ^  +  ^  2  ^  +  ^  3  ^  +  ^  4  ^  +  ^
G|----0-----0-----0-----0-----0-----0-----0-----0--|----0-----0-----0-----0-----0-----0-----0-----0-|
D|-5-----5-----5-----5-----5-----5-----5-----5-----|-5-----5-----5-----5-----5-----7-----7-----9----|
A|-------------------------------------------------|------------------------------------------------|
E|-------------------------------------------------|------------------------------------------------|
                                                                                                      _
   1  ^  +  ^  2  ^  +  ^  3  ^  +  ^  4  ^  +  ^    1  ^  +  ^  2  ^  +  ^  3  ^  +  ^  4  ^  +  ^    |
G|----12----12----12----10----10----10----10----9--|----9-----9-----9-----10----10----9-----9-------|  |
D|-10----10----10----10----10----10----10----10----|-10----10----10----10----10----10----10----10\--|  |
A|-------------------------------------------------|------------------------------------------------|  |
E|-------------------------------------------------|------------------------------------------------|   \ x3
                                                                                                        /
   1  ^  +  ^  2  ^  +  ^  3  ^  +  ^  4  ^  +  ^    1  ^  +  ^  2  ^  +  ^  3  ^  +  ^  4  ^  +  ^    |
G|----0-----0-----0-----0-----0-----0-----0-----0--|----0-----0-----0-----0-----0-----0-----0-----0-|  |
D|-5-----5-----5-----5-----5-----5-----5-----5-----|-5-----5-----5-----5-----5-----7-----7-----9----|  |
A|-------------------------------------------------|------------------------------------------------|  |
E|-------------------------------------------------|------------------------------------------------| _|


Outro:

   1 ^ + ^ 2 ^ + ^ 3 ^ + ^ 4 ^ + ^   1 ^ + ^ 2 ^ + ^ 3 ^ + ^ 4 ^ + ^
G|---------------------------------|---------------------------------|
D|---------------------------5h7---|-------5-------------------------|
A|---------------------------------|---------------------------------|
E|-3-------3-----5---------------0-|-3-------3-----5-----------------|

   1 ^ + ^ 2 ^ + ^ 3 ^ + ^ 4 ^ + ^   1 ^ + ^ 2 ^ + ^ 3 ^ + ^ 4 ^ + ^
G|---------------------------------|---------------------------------|
D|---------------------------------|---------------------------------|
A|---------------------------------|---------------------------------|
E|-3-------3-----0-----------------|-3-------3-----0-----0---0---0---|

   1 ^ + ^ 2 ^ + ^ 3 ^ + ^ 4 ^ + ^   1 ^ + ^ 2 ^ + ^ 3 ^ + ^ 4 ^ + ^
G|---------------------------------|---------------------------------|
D|---------------------------------|---------------------------------|
A|---------------------------------|---------------------------------|
E|-3-------3-----5-----------------|-3-------3-----5-----------------|



************************************

| h   Hammer-on
| /   Slide up
| \   Slide down

************************************

Comment this song and these bass tabs

Do you have corrections, comments on the bass tabs, thoughts about the song or a message to the author? Write them below.