Tale In Hard Time by Fairport Convention

Tale In Hard Time chords by Fairport Convention

Guitar chords with lyrics

Intro:

E|--------3---------3----------3----------3----------3---------3------3-------3---| (Repeat)
B|----3---------3----------3----------3----------3---------3-------3------3-------|
G|------0---------0----------0----------0----------0---------0-------0------0-----|
D|--4---------5----------4----------5----------4---------5-------5------5---------|
A|--------------------------------------------------------------------------------|
E|--------------------------------------------------------------------------------|


These 3 chords played with G on the 3th fret of E-string (Not totally necessary):

 C/G  Am7  Bb6
--3-----3-----3----
--1-----1-----3----
--0-----2-----3----
--2-----2-----3----
--3-----0-----1----
-------------------


     C/G   Am7
Take the sun from my heart
    C/G    G
Let me learn to despise
   C/G          Bb6     F C G
I'll show you another who cannot tell lies


   C/G    Am7
The blind man can't see
   C/G      G
Who demands to his eyes
   C/G         Bb6      D  Bm C Bb G
I'll show you another who sings as he cries


Solo chords: G   C/G Bb6  F C G


  C/G    Am7
I cannot be whole
    C/G     G
As the beggar who sighs
   C/G         Bb6      F  C G
I'll show you another who knows as he dies


Outro: Same as intro


xarlee_650

Find guitar tabs and chords

A B C D E F G H I J K L M N O P Q R S T U V W X Y Z #