Guitar Tabs Explorer
The Faceless guitar tabs for Ten billion years

Ten Billion Years tab


Be the first to rate

Ten Billion Years tab by The Faceless

Guitar tabs with lyrics

Print

Couldn't change the other tab from "intro" to whole song.
But here's the majority of the song.

Intro riff
d|--------------------------|------------------------------------|
A|-----6--------------------|------------------------------------|
F| chord diagramF|F|--------6-----------------|---------------0----------0---------|
C| chord diagramC|C|-----------7--------------|---2--------------------------------|
G|--------------7--7--4-----|------4-----------------------------|
C| chord diagramC|C|--0--------------------2--|0--------6--1----0-1-2-3----3-2-1---|

d|--------------------------|------------------------------------|
A|-----6--------------------|------------------------------------|
F| chord diagramF|F|--------6-----------------|---------------0----------0---------|
C| chord diagramC|C|-----------7--------------|---2--------------------------------|
G|------------/12-7-8-4-----|------4-----------------------------|
C| chord diagramC|C|--0--------------------2--|0--------6--1----0-1-2-3----3-2-1---|

d|--------------------------|------------------------------------|
A|-----6--------------------|------------------------------------|
F| chord diagramF|F|--------6-----------------|---------------0----------0---------|
C| chord diagramC|C|-----------7-11-6-7-8-----|---2--------------------------------| x2
G|--------------------------|------4-----------------------------|
C| chord diagramC|C|--0--------------------2--|0--------6--1----0-1-2-3----3-2-1---|

Verse
d|-----------------------|---------------------|
A|-----------------------|---------------------|
F| chord diagramF|F|-----------------------|---------------------|
C| chord diagramC|C|-----------------------|---------------------|
G|--1---------4----------|1--------4-4-----4-5-|
C| chord diagramC|C|---3-0-1--0---0-6--0---|-3-0-1-0-----0-6-----|

d|-----------------------|--------------------|
A|-----------------------|--------------------|
F| chord diagramF|F|-----------------------|--------------------|
C| chord diagramC|C|-----------------------|--------------------| x2
G|--1---------4----------|1--------4-4---4-4--|
C| chord diagramC|C|---3-0-1--0---0-6--0---|-3-0-1-0------------|

d|-----------------------|---------------------|
A|-----------------------|---------------------|
F| chord diagramF|F|-----------------------|---------------------|
C| chord diagramC|C|-----------------------|---------------------|
G|--1---------4----------|1--------4-4-----4-5-|
C| chord diagramC|C|---3-0-1--0---0-6--0---|-3-0-1-0-----0-6-----|

The "At my table..." part
d|------------------------|----------------------|----------------------|
A|------------------------|----------------------|----------------------|
F| chord diagramF|F|------------------------|----------------------|----------------------|
C| chord diagramC|C|--5---------5---------5/|8---------8---------8|7---------7---------7-|
G|--1-----1-----1---1-----|5-----5-----5---5-----|5-----5-----5---5-----|
C| chord diagramC|C|--1---1---1-----1---1---|5---5---5-----5---5---|3---3---3-----3---3---|

d|------------------------|
A|------------------------|
F| chord diagramF|F|------------0---------0-|
C| chord diagramC|C|--0-----0-----0---0-----|
G|--4-------4-----4---4---|
C| chord diagramC|C|--2---2-----------------|

And there are the main parts of the song.
You're probably gonna need to listen to the song
to figure out the timing (namely for the verse) and
which notes to bend, as it was so many I didn't feel
like labeling every single one.
Any corrections or additions (because it takes a while to tab stuff...)
just comment.
Enjoy!

Comment this song and these guitar tabs

Do you have corrections, comments on the guitar tabs, thoughts about the song or a message to the author? Write them below.