Search tabs and chords

Browse bands and artists

A B C D E F G H I J K L M N O P Q R S T U V W X Y Z #

Log in

[ Register here | Forgot password ]

Guitar Tabs Explorer
Print

Guitar tabs with lyrics:

Ten Billion Years tab by The Faceless

Couldn't change the other tab from "intro" to whole song.
But here's the majority of the song.

Intro riff
d|--------------------------|------------------------------------|
A|-----6--------------------|------------------------------------|
F|--------6-----------------|---------------0----------0---------|
C|-----------7--------------|---2--------------------------------|
G|--------------7--7--4-----|------4-----------------------------|
C|--0--------------------2--|0--------6--1----0-1-2-3----3-2-1---|

d|--------------------------|------------------------------------|
A|-----6--------------------|------------------------------------|
F|--------6-----------------|---------------0----------0---------|
C|-----------7--------------|---2--------------------------------|
G|------------/12-7-8-4-----|------4-----------------------------|
C|--0--------------------2--|0--------6--1----0-1-2-3----3-2-1---|

d|--------------------------|------------------------------------|
A|-----6--------------------|------------------------------------|
F|--------6-----------------|---------------0----------0---------|
C|-----------7-11-6-7-8-----|---2--------------------------------| x2
G|--------------------------|------4-----------------------------|
C|--0--------------------2--|0--------6--1----0-1-2-3----3-2-1---|

Verse
d|-----------------------|---------------------|
A|-----------------------|---------------------|
F|-----------------------|---------------------|
C|-----------------------|---------------------|
G|--1---------4----------|1--------4-4-----4-5-|
C|---3-0-1--0---0-6--0---|-3-0-1-0-----0-6-----|

d|-----------------------|--------------------|
A|-----------------------|--------------------|
F|-----------------------|--------------------|
C|-----------------------|--------------------| x2
G|--1---------4----------|1--------4-4---4-4--|
C|---3-0-1--0---0-6--0---|-3-0-1-0------------|

d|-----------------------|---------------------|
A|-----------------------|---------------------|
F|-----------------------|---------------------|
C|-----------------------|---------------------|
G|--1---------4----------|1--------4-4-----4-5-|
C|---3-0-1--0---0-6--0---|-3-0-1-0-----0-6-----|

The "At my table..." part
d|------------------------|----------------------|----------------------|
A|------------------------|----------------------|----------------------|
F|------------------------|----------------------|----------------------|
C|--5---------5---------5/|8---------8---------8|7---------7---------7-|
G|--1-----1-----1---1-----|5-----5-----5---5-----|5-----5-----5---5-----|
C|--1---1---1-----1---1---|5---5---5-----5---5---|3---3---3-----3---3---|

d|------------------------|
A|------------------------|
F|------------0---------0-|
C|--0-----0-----0---0-----|
G|--4-------4-----4---4---|
C|--2---2-----------------|

And there are the main parts of the song.
You're probably gonna need to listen to the song
to figure out the timing (namely for the verse) and
which notes to bend, as it was so many I didn't feel
like labeling every single one.
Any corrections or additions (because it takes a while to tab stuff...)
just comment.
Enjoy!

Comments

The Faceless guitar tabs for Ten billion years