Guitar Tabs Explorer
Europe guitar tabs for The final countdown (Ver. 4)

The Final Countdown tab


Be the first to rate

The Final Countdown tab by Europe (Ver. 4)

Intro

Print

Tuning: Standard (E chord diagramEE A chord diagramAA D chord diagramDD G chord diagramGG B chord diagramBB E chord diagramEE)

Key: F#m chord diagramF#mF#m

Intro:

                                                                                          C# chord diagramC#C#/E# chord diagramE#E#
   F#m chord diagramF#mF#m                     D chord diagramDD            .  .         Bm chord diagramBmBm                       E chord diagramEE           .   .     .
e|---------9-7-9---------|--------10-9-10--9--7----|(7)-----10-9-10---------|--------7----7---------7--|
B|------------------7----|(7)----------------------|-------------------7----|(7)-------10----10--9-----|
G|-----------------------|-------------------------|------------------------|--------------------------|
D|-----------------------|-------------------------|------------------------|--------------------------|
A|-----------------------|-------------------------|------------------------|--------------------------|
E|-----------------------|-------------------------|------------------------|--------------------------|

                                                                                          C# chord diagramC#C#/E# chord diagramE#E#
   F#m chord diagramF#mF#m                     D chord diagramDD            .  .         Bm chord diagramBmBm                       E chord diagramEE           .   .     .
e|---------9-7-9---------|--------10-9-10--9--7----|(7)-----10-9-10---------|--------7----7---------7--|
B|-10---------------7----|(7)----------------------|-------------------7----|(7)-------10----10--9-----|
G|-----------------------|-------------------------|------------------------|--------------------------| x3
D|-----------------------|-------------------------|------------------------|--------------------------|
A|-----------------------|-------------------------|------------------------|--------------------------|
E|-----------------------|-------------------------|------------------------|--------------------------|

   F#m chord diagramF#mF#m          E chord diagramEE/G# chord diagramG#G#           A chord diagramAA            D chord diagramDD            C chord diagramCC#sus4                   C# chord diagramC#C#
e|--------------7----------7-|-9--7--------------10----|-9---------9---10---9-7-|-9-------------------|
B|-10------9-10---------10---|-------10--9--7----------|------------------------|---------------------|
G|---------------------------|-------------------------|------------------------|---------------------|
D|---------------------------|-------------------------|------------------------|---------------------|
A|---------------------------|-------------------------|------------------------|---------------------|
E|---------------------------|-------------------------|------------------------|---------------------|


Repeat: (only play main part x2 in total)

   F#m chord diagramF#mF#m                     D chord diagramDD            .  .         Bm chord diagramBmBm                       E chord diagramEE           .   .     .
e|---------9-7-9---------|--------10-9-10--9--7----|(7)-----10-9-10---------|--------7----7---------7--|
B|------------------7----|(7)----------------------|-------------------7----|(7)-------10----10--9-----|
G|-----------------------|-------------------------|------------------------|--------------------------|
D|-----------------------|-------------------------|------------------------|--------------------------|
A|-----------------------|-------------------------|------------------------|--------------------------|
E|-----------------------|-------------------------|------------------------|--------------------------|

   F#m chord diagramF#mF#m                     D chord diagramDD            .  .         Bm chord diagramBmBm                       E chord diagramEE           .   .     .
e|---------9-7-9---------|--------10-9-10--9--7----|(7)-----10-9-10---------|--------7----7---------7--|
B|-10---------------7----|(7)----------------------|-------------------7----|(7)-------10----10--9-----|
G|-----------------------|-------------------------|------------------------|--------------------------|
D|-----------------------|-------------------------|------------------------|--------------------------|
A|-----------------------|-------------------------|------------------------|--------------------------|
E|-----------------------|-------------------------|------------------------|--------------------------|

   F#m chord diagramF#mF#m          E chord diagramEE/G# chord diagramG#G#           A chord diagramAA            D chord diagramDD            C chord diagramCC#sus4                    C# chord diagramC#C#
e|--------------7----------7-|-9--7--------------10----|-9--------------9-10-9-7-|-9-------------------|
B|-10------9-10---------10---|-------10--9--7----------|-------------------------|---------------------|
G|---------------------------|-------------------------|-------------------------|---------------------|
D|---------------------------|-------------------------|-------------------------|---------------------|
A|---------------------------|-------------------------|-------------------------|---------------------|
E|---------------------------|-------------------------|-------------------------|---------------------|


********************************

| (n)  Hold note over bar line
|  .   Staccato

********************************

Other versions of The Final Countdown

The final countdownTabs
The final countdown (Ver. 2)Tabs
The final countdown (Ver. 3)Tabs

Comment this song and these intro

Do you have corrections, comments on the intro, thoughts about the song or a message to the author? Write them below.